  0
SECTION
  2
HEADER
  9
$ACADVER
  1
AC1021
  9
$ACADMAINTVER
 70
    25
  9
$DWGCODEPAGE
  3
ANSI_1250
  9
$INSBASE
 10
0.0
 20
0.0
 30
0.0
  9
$EXTMIN
 10
-8.82122
 20
-12.72172
 30
0.0
  9
$EXTMAX
 10
9.90437
 20
12.189
 30
0.0
  9
$LIMMIN
 10
0.0
 20
0.0
  9
$LIMMAX
 10
12.0
 20
9.0
  9
$ORTHOMODE
 70
     0
  9
$REGENMODE
 70
     1
  9
$FILLMODE
 70
     1
  9
$QTEXTMODE
 70
     0
  9
$MIRRTEXT
 70
     1
  9
$LTSCALE
 40
1.0
  9
$ATTMODE
 70
     1
  9
$TEXTSIZE
 40
0.2
  9
$TRACEWID
 40
0.05
  9
$TEXTSTYLE
  7
Standard
  9
$CLAYER
  8
0
  9
$CELTYPE
  6
ByLayer
  9
$CECOLOR
 62
   256
  9
$CELTSCALE
 40
1.0
  9
$DISPSILH
 70
     0
  9
$DIMSCALE
 40
1.0
  9
$DIMASZ
 40
0.18
  9
$DIMEXO
 40
0.0625
  9
$DIMDLI
 40
0.38
  9
$DIMRND
 40
0.0
  9
$DIMDLE
 40
0.0
  9
$DIMEXE
 40
0.18
  9
$DIMTP
 40
0.0
  9
$DIMTM
 40
0.0
  9
$DIMTXT
 40
0.18
  9
$DIMCEN
 40
0.09
  9
$DIMTSZ
 40
0.0
  9
$DIMTOL
 70
     0
  9
$DIMLIM
 70
     0
  9
$DIMTIH
 70
     1
  9
$DIMTOH
 70
     1
  9
$DIMSE1
 70
     0
  9
$DIMSE2
 70
     0
  9
$DIMTAD
 70
     0
  9
$DIMZIN
 70
     0
  9
$DIMBLK
  1

  9
$DIMASO
 70
     1
  9
$DIMSHO
 70
     1
  9
$DIMPOST
  1

  9
$DIMAPOST
  1

  9
$DIMALT
 70
     0
  9
$DIMALTD
 70
     2
  9
$DIMALTF
 40
25.4
  9
$DIMLFAC
 40
1.0
  9
$DIMTOFL
 70
     0
  9
$DIMTVP
 40
0.0
  9
$DIMTIX
 70
     0
  9
$DIMSOXD
 70
     0
  9
$DIMSAH
 70
     0
  9
$DIMBLK1
  1

  9
$DIMBLK2
  1

  9
$DIMSTYLE
  2
Standard
  9
$DIMCLRD
 70
     0
  9
$DIMCLRE
 70
     0
  9
$DIMCLRT
 70
     0
  9
$DIMTFAC
 40
1.0
  9
$DIMGAP
 40
0.09
  9
$DIMJUST
 70
     0
  9
$DIMSD1
 70
     0
  9
$DIMSD2
 70
     0
  9
$DIMTOLJ
 70
     1
  9
$DIMTZIN
 70
     0
  9
$DIMALTZ
 70
     0
  9
$DIMALTTZ
 70
     0
  9
$DIMUPT
 70
     0
  9
$DIMDEC
 70
     4
  9
$DIMTDEC
 70
     4
  9
$DIMALTU
 70
     2
  9
$DIMALTTD
 70
     2
  9
$DIMTXSTY
  7
Standard
  9
$DIMAUNIT
 70
     0
  9
$DIMADEC
 70
     0
  9
$DIMALTRND
 40
0.0
  9
$DIMAZIN
 70
     0
  9
$DIMDSEP
 70
    46
  9
$DIMATFIT
 70
     3
  9
$DIMFRAC
 70
     0
  9
$DIMLDRBLK
  1

  9
$DIMLUNIT
 70
     2
  9
$DIMLWD
 70
    -2
  9
$DIMLWE
 70
    -2
  9
$DIMTMOVE
 70
     0
  9
$DIMFXL
 40
1.0
  9
$DIMFXLON
 70
     0
  9
$DIMJOGANG
 40
0.7853981633974483
  9
$DIMTFILL
 70
     0
  9
$DIMTFILLCLR
 70
     0
  9
$DIMARCSYM
 70
     0
  9
$DIMLTYPE
  6

  9
$DIMLTEX1
  6

  9
$DIMLTEX2
  6

  9
$LUNITS
 70
     2
  9
$LUPREC
 70
     4
  9
$SKETCHINC
 40
0.1
  9
$FILLETRAD
 40
0.5
  9
$AUNITS
 70
     0
  9
$AUPREC
 70
     0
  9
$MENU
  1
.
  9
$ELEVATION
 40
0.0
  9
$PELEVATION
 40
0.0
  9
$THICKNESS
 40
0.0
  9
$LIMCHECK
 70
     0
  9
$CHAMFERA
 40
0.5
  9
$CHAMFERB
 40
0.5
  9
$CHAMFERC
 40
1.0
  9
$CHAMFERD
 40
0.0
  9
$SKPOLY
 70
     0
  9
$TDCREATE
 40
2457571.588389097
  9
$TDUCREATE
 40
2457571.505055764
  9
$TDUPDATE
 40
2457571.588389109
  9
$TDUUPDATE
 40
2457571.505055775
  9
$TDINDWG
 40
0.0000000116
  9
$TDUSRTIMER
 40
0.0000000116
  9
$USRTIMER
 70
     1
  9
$ANGBASE
 50
0.0
  9
$ANGDIR
 70
     0
  9
$PDMODE
 70
     0
  9
$PDSIZE
 40
0.0
  9
$PLINEWID
 40
0.0
  9
$SPLFRAME
 70
     0
  9
$SPLINETYPE
 70
     6
  9
$SPLINESEGS
 70
     8
  9
$HANDSEED
  5
14D
  9
$SURFTAB1
 70
     6
  9
$SURFTAB2
 70
     6
  9
$SURFTYPE
 70
     6
  9
$SURFU
 70
     6
  9
$SURFV
 70
     6
  9
$UCSBASE
  2

  9
$UCSNAME
  2

  9
$UCSORG
 10
0.0
 20
0.0
 30
0.0
  9
$UCSXDIR
 10
1.0
 20
0.0
 30
0.0
  9
$UCSYDIR
 10
0.0
 20
1.0
 30
0.0
  9
$UCSORTHOREF
  2

  9
$UCSORTHOVIEW
 70
     0
  9
$UCSORGTOP
 10
0.0
 20
0.0
 30
0.0
  9
$UCSORGBOTTOM
 10
0.0
 20
0.0
 30
0.0
  9
$UCSORGLEFT
 10
0.0
 20
0.0
 30
0.0
  9
$UCSORGRIGHT
 10
0.0
 20
0.0
 30
0.0
  9
$UCSORGFRONT
 10
0.0
 20
0.0
 30
0.0
  9
$UCSORGBACK
 10
0.0
 20
0.0
 30
0.0
  9
$PUCSBASE
  2

  9
$PUCSNAME
  2

  9
$PUCSORG
 10
0.0
 20
0.0
 30
0.0
  9
$PUCSXDIR
 10
1.0
 20
0.0
 30
0.0
  9
$PUCSYDIR
 10
0.0
 20
1.0
 30
0.0
  9
$PUCSORTHOREF
  2

  9
$PUCSORTHOVIEW
 70
     0
  9
$PUCSORGTOP
 10
0.0
 20
0.0
 30
0.0
  9
$PUCSORGBOTTOM
 10
0.0
 20
0.0
 30
0.0
  9
$PUCSORGLEFT
 10
0.0
 20
0.0
 30
0.0
  9
$PUCSORGRIGHT
 10
0.0
 20
0.0
 30
0.0
  9
$PUCSORGFRONT
 10
0.0
 20
0.0
 30
0.0
  9
$PUCSORGBACK
 10
0.0
 20
0.0
 30
0.0
  9
$USERI1
 70
     0
  9
$USERI2
 70
     0
  9
$USERI3
 70
     0
  9
$USERI4
 70
     0
  9
$USERI5
 70
     0
  9
$USERR1
 40
0.0
  9
$USERR2
 40
0.0
  9
$USERR3
 40
0.0
  9
$USERR4
 40
0.0
  9
$USERR5
 40
0.0
  9
$WORLDVIEW
 70
     1
  9
$SHADEDGE
 70
     3
  9
$SHADEDIF
 70
    70
  9
$TILEMODE
 70
     1
  9
$MAXACTVP
 70
    64
  9
$PINSBASE
 10
0.0
 20
0.0
 30
0.0
  9
$PLIMCHECK
 70
     0
  9
$PEXTMIN
 10
1.000000000000000E+20
 20
1.000000000000000E+20
 30
1.000000000000000E+20
  9
$PEXTMAX
 10
-1.000000000000000E+20
 20
-1.000000000000000E+20
 30
-1.000000000000000E+20
  9
$PLIMMIN
 10
0.0
 20
0.0
  9
$PLIMMAX
 10
12.0
 20
9.0
  9
$UNITMODE
 70
     0
  9
$VISRETAIN
 70
     1
  9
$PLINEGEN
 70
     0
  9
$PSLTSCALE
 70
     1
  9
$TREEDEPTH
 70
  3020
  9
$CMLSTYLE
  2
Standard
  9
$CMLJUST
 70
     0
  9
$CMLSCALE
 40
1.0
  9
$PROXYGRAPHICS
 70
     1
  9
$MEASUREMENT
 70
     0
  9
$CELWEIGHT
370
    -1
  9
$ENDCAPS
280
     0
  9
$JOINSTYLE
280
     0
  9
$LWDISPLAY
290
     0
  9
$INSUNITS
 70
     5
  9
$HYPERLINKBASE
  1

  9
$STYLESHEET
  1

  9
$XEDIT
290
     1
  9
$CEPSNTYPE
380
     0
  9
$PSTYLEMODE
290
     1
  9
$FINGERPRINTGUID
  2
{19BF55F5-3971-4053-A0BA-A71C6D9C5C2B}
  9
$VERSIONGUID
  2
{FAEB1C32-E019-11D5-929B-00C0DF256EC4}
  9
$EXTNAMES
290
     1
  9
$PSVPSCALE
 40
0.0
  9
$OLESTARTUP
290
     0
  9
$SORTENTS
280
   127
  9
$INDEXCTL
280
     0
  9
$HIDETEXT
280
     1
  9
$XCLIPFRAME
290
     0
  9
$HALOGAP
280
     0
  9
$OBSCOLOR
 70
   257
  9
$OBSLTYPE
280
     0
  9
$INTERSECTIONDISPLAY
280
     0
  9
$INTERSECTIONCOLOR
 70
   257
  9
$DIMASSOC
280
     2
  9
$PROJECTNAME
  1

  9
$CAMERADISPLAY
290
     0
  9
$LENSLENGTH
 40
50.0
  9
$CAMERAHEIGHT
 40
0.0
  9
$STEPSPERSEC
 40
2.0
  9
$STEPSIZE
 40
6.0
  9
$3DDWFPREC
 40
2.0
  9
$PSOLWIDTH
 40
0.25
  9
$PSOLHEIGHT
 40
4.0
  9
$LOFTANG1
 40
1.570796326794897
  9
$LOFTANG2
 40
1.570796326794897
  9
$LOFTMAG1
 40
0.0
  9
$LOFTMAG2
 40
0.0
  9
$LOFTPARAM
 70
     7
  9
$LOFTNORMALS
280
     1
  9
$LATITUDE
 40
37.795
  9
$LONGITUDE
 40
-122.394
  9
$NORTHDIRECTION
 40
0.0
  9
$TIMEZONE
 70
 -8000
  9
$LIGHTGLYPHDISPLAY
280
     1
  9
$TILEMODELIGHTSYNCH
280
     1
  9
$SOLIDHIST
280
     1
  9
$SHOWHIST
280
     1
  9
$DWFFRAME
280
     2
  9
$DGNFRAME
280
     2
  9
$REALWORLDSCALE
290
     1
  9
$INTERFERECOLOR
 62
   256
  9
$CSHADOW
280
     0
  9
$SHADOWPLANELOCATION
 40
0.0
  0
ENDSEC
  0
SECTION
  2
CLASSES
  0
CLASS
  1
ACDBDICTIONARYWDFLT
  2
AcDbDictionaryWithDefault
  3
ObjectDBX Classes
 90
        0
 91
        4
280
     0
281
     0
  0
CLASS
  1
VISUALSTYLE
  2
AcDbVisualStyle
  3
ObjectDBX Classes
 90
     4095
 91
        4
280
     0
281
     0
  0
CLASS
  1
MATERIAL
  2
AcDbMaterial
  3
ObjectDBX Classes
 90
     1153
 91
        4
280
     0
281
     0
  0
CLASS
  1
SCALE
  2
AcDbScale
  3
ObjectDBX Classes
 90
     1153
 91
        4
280
     0
281
     0
  0
CLASS
  1
DICTIONARYVAR
  2
AcDbDictionaryVar
  3
ObjectDBX Classes
 90
        0
 91
        4
280
     0
281
     0
  0
ENDSEC
  0
SECTION
  2
TABLES
  0
TABLE
  2
VPORT
  5
8
330
0
100
AcDbSymbolTable
 70
     1
  0
VPORT
  5
29
330
8
100
AcDbSymbolTableRecord
100
AcDbViewportTableRecord
  2
*Active
 70
     0
 10
0.0
 20
0.0
 11
1.0
 21
1.0
 12
10.42990654205607
 22
4.5
 13
0.0
 23
0.0
 14
0.5
 24
0.5
 15
0.5
 25
0.5
 16
0.0
 26
0.0
 36
1.0
 17
0.0
 27
0.0
 37
0.0
 40
9.0
 41
1.972972972850329
 42
50.0
 43
0.0
 44
0.0
 50
0.0
 51
0.0
 71
     0
 72
   100
 73
     1
 74
     3
 75
     0
 76
     0
 77
     0
 78
     0
281
     0
 65
     1
110
0.0
120
0.0
130
0.0
111
1.0
121
0.0
131
0.0
112
0.0
122
1.0
132
0.0
 79
     0
146
0.0
 60
     3
 61
     5
292
     1
282
     1
141
0.0
142
0.0
 63
   250
  0
ENDTAB
  0
TABLE
  2
LTYPE
  5
5
330
0
100
AcDbSymbolTable
 70
     1
  0
LTYPE
  5
14
330
5
100
AcDbSymbolTableRecord
100
AcDbLinetypeTableRecord
  2
ByBlock
 70
     0
  3

 72
    65
 73
     0
 40
0.0
  0
LTYPE
  5
15
330
5
100
AcDbSymbolTableRecord
100
AcDbLinetypeTableRecord
  2
ByLayer
 70
     0
  3

 72
    65
 73
     0
 40
0.0
  0
LTYPE
  5
16
330
5
100
AcDbSymbolTableRecord
100
AcDbLinetypeTableRecord
  2
Continuous
 70
     0
  3
Solid line
 72
    65
 73
     0
 40
0.0
  0
ENDTAB
  0
TABLE
  2
LAYER
  5
2
330
0
100
AcDbSymbolTable
 70
     2
  0
LAYER
  5
10
330
2
100
AcDbSymbolTableRecord
100
AcDbLayerTableRecord
  2
0
 70
     0
 62
     7
  6
Continuous
370
    -3
390
F
347
3E
  0
LAYER
  5
40
330
2
100
AcDbSymbolTableRecord
100
AcDbLayerTableRecord
  2
Warstwa 1
 70
     0
 62
     7
  6
Continuous
370
    -3
390
F
347
3E
  0
ENDTAB
  0
TABLE
  2
STYLE
  5
3
330
0
100
AcDbSymbolTable
 70
     4
  0
STYLE
  5
11
330
3
100
AcDbSymbolTableRecord
100
AcDbTextStyleTableRecord
  2
Standard
 70
     0
 40
0.0
 41
1.0
 50
0.0
 71
     0
 42
0.2
  3
txt
  4

  0
STYLE
  5
42
330
3
100
AcDbSymbolTableRecord
100
AcDbTextStyleTableRecord
  2
0
 70
     0
 40
1.0
 41
1.0
 50
0.0
 71
     0
 42
1.0
  3
Arial
  4

1001
ACAD
1000
Arial
1071
    60962
  0
STYLE
  5
6D
330
3
100
AcDbSymbolTableRecord
100
AcDbTextStyleTableRecord
  2
1
 70
     0
 40
1.0
 41
1.0
 50
0.0
 71
     0
 42
1.0
  3
Arial
  4

1001
ACAD
1000
Arial
1071
    60962
  0
STYLE
  5
72
330
3
100
AcDbSymbolTableRecord
100
AcDbTextStyleTableRecord
  2
2
 70
     0
 40
1.0
 41
1.0
 50
0.0
 71
     0
 42
1.0
  3
Arial
  4

1001
ACAD
1000
Arial
1071
    60962
  0
ENDTAB
  0
TABLE
  2
VIEW
  5
6
330
0
100
AcDbSymbolTable
 70
     0
  0
ENDTAB
  0
TABLE
  2
UCS
  5
7
330
0
100
AcDbSymbolTable
 70
     0
  0
ENDTAB
  0
TABLE
  2
APPID
  5
9
330
0
100
AcDbSymbolTable
 70
     2
  0
APPID
  5
12
330
9
100
AcDbSymbolTableRecord
100
AcDbRegAppTableRecord
  2
ACAD
 70
     0
  0
APPID
  5
3F
330
9
100
AcDbSymbolTableRecord
100
AcDbRegAppTableRecord
  2
ODA
 70
     0
  0
ENDTAB
  0
TABLE
  2
DIMSTYLE
  5
A
330
0
100
AcDbSymbolTable
 70
     1
100
AcDbDimStyleTable
  0
DIMSTYLE
105
27
330
A
100
AcDbSymbolTableRecord
100
AcDbDimStyleTableRecord
  2
Standard
 70
     0
340
11
  0
ENDTAB
  0
TABLE
  2
BLOCK_RECORD
  5
1
330
0
100
AcDbSymbolTable
 70
     1
  0
BLOCK_RECORD
  5
1F
330
1
100
AcDbSymbolTableRecord
100
AcDbBlockTableRecord
  2
*Model_Space
340
22
 70
     0
280
     1
281
     0
  0
BLOCK_RECORD
  5
1B
330
1
100
AcDbSymbolTableRecord
100
AcDbBlockTableRecord
  2
*Paper_Space
340
1E
 70
     0
280
     1
281
     0
  0
BLOCK_RECORD
  5
23
330
1
100
AcDbSymbolTableRecord
100
AcDbBlockTableRecord
  2
*Paper_Space0
340
26
 70
     0
280
     1
281
     0
  0
ENDTAB
  0
ENDSEC
  0
SECTION
  2
BLOCKS
  0
BLOCK
  5
20
330
1F
100
AcDbEntity
  8
0
100
AcDbBlockBegin
  2
*Model_Space
 70
     0
 10
0.0
 20
0.0
 30
0.0
  3
*Model_Space
  1

  0
ENDBLK
  5
21
330
1F
100
AcDbEntity
  8
0
100
AcDbBlockEnd
  0
BLOCK
  5
1C
330
1B
100
AcDbEntity
 67
     1
  8
0
100
AcDbBlockBegin
  2
*Paper_Space
 70
     0
 10
0.0
 20
0.0
 30
0.0
  3
*Paper_Space
  1

  0
ENDBLK
  5
1D
330
1B
100
AcDbEntity
 67
     1
  8
0
100
AcDbBlockEnd
  0
BLOCK
  5
24
330
23
100
AcDbEntity
  8
0
100
AcDbBlockBegin
  2
*Paper_Space0
 70
     0
 10
0.0
 20
0.0
 30
0.0
  3
*Paper_Space0
  1

  0
ENDBLK
  5
25
330
23
100
AcDbEntity
  8
0
100
AcDbBlockEnd
  0
ENDSEC
  0
SECTION
  2
ENTITIES
  0
SPLINE
  5
41
330
1F
100
AcDbEntity
  8
Warstwa 1
 62
     7
370
   100
100
AcDbSpline
210
0.0
220
0.0
230
1.0
 70
    11
 71
     3
 72
   144
 73
   140
 74
     0
 42
0.0000000001
 43
0.0000000001
 40
0.0
 40
0.0
 40
0.0
 40
0.0
 40
0.0277777777777778
 40
0.0277777777777778
 40
0.0277777777777778
 40
0.0277777777777778
 40
0.0555555555555556
 40
0.0555555555555556
 40
0.0555555555555556
 40
0.0555555555555556
 40
0.0833333333333333
 40
0.0833333333333333
 40
0.0833333333333333
 40
0.0833333333333333
 40
0.1111111111111111
 40
0.1111111111111111
 40
0.1111111111111111
 40
0.1111111111111111
 40
0.1388888888888889
 40
0.1388888888888889
 40
0.1388888888888889
 40
0.1388888888888889
 40
0.1666666666666667
 40
0.1666666666666667
 40
0.1666666666666667
 40
0.1666666666666667
 40
0.1944444444444444
 40
0.1944444444444444
 40
0.1944444444444444
 40
0.1944444444444444
 40
0.2222222222222222
 40
0.2222222222222222
 40
0.2222222222222222
 40
0.2222222222222222
 40
0.25
 40
0.25
 40
0.25
 40
0.25
 40
0.2777777777777778
 40
0.2777777777777778
 40
0.2777777777777778
 40
0.2777777777777778
 40
0.3055555555555556
 40
0.3055555555555556
 40
0.3055555555555556
 40
0.3055555555555556
 40
0.3333333333333333
 40
0.3333333333333333
 40
0.3333333333333333
 40
0.3333333333333333
 40
0.3611111111111111
 40
0.3611111111111111
 40
0.3611111111111111
 40
0.3611111111111111
 40
0.3888888888888889
 40
0.3888888888888889
 40
0.3888888888888889
 40
0.3888888888888889
 40
0.4166666666666667
 40
0.4166666666666667
 40
0.4166666666666667
 40
0.4166666666666667
 40
0.4444444444444444
 40
0.4444444444444444
 40
0.4444444444444444
 40
0.4444444444444444
 40
0.4722222222222222
 40
0.4722222222222222
 40
0.4722222222222222
 40
0.4722222222222222
 40
0.5
 40
0.5
 40
0.5
 40
0.5
 40
0.5277777777777778
 40
0.5277777777777778
 40
0.5277777777777778
 40
0.5277777777777778
 40
0.5555555555555556
 40
0.5555555555555556
 40
0.5555555555555556
 40
0.5555555555555556
 40
0.5833333333333334
 40
0.5833333333333334
 40
0.5833333333333334
 40
0.5833333333333334
 40
0.6111111111111112
 40
0.6111111111111112
 40
0.6111111111111112
 40
0.6111111111111112
 40
0.6388888888888888
 40
0.6388888888888888
 40
0.6388888888888888
 40
0.6388888888888888
 40
0.6666666666666666
 40
0.6666666666666666
 40
0.6666666666666666
 40
0.6666666666666666
 40
0.6944444444444444
 40
0.6944444444444444
 40
0.6944444444444444
 40
0.6944444444444444
 40
0.7222222222222222
 40
0.7222222222222222
 40
0.7222222222222222
 40
0.7222222222222222
 40
0.75
 40
0.75
 40
0.75
 40
0.75
 40
0.7777777777777778
 40
0.7777777777777778
 40
0.7777777777777778
 40
0.7777777777777778
 40
0.8055555555555556
 40
0.8055555555555556
 40
0.8055555555555556
 40
0.8055555555555556
 40
0.8333333333333334
 40
0.8333333333333334
 40
0.8333333333333334
 40
0.8333333333333334
 40
0.8611111111111112
 40
0.8611111111111112
 40
0.8611111111111112
 40
0.8611111111111112
 40
0.8888888888888888
 40
0.8888888888888888
 40
0.8888888888888888
 40
0.8888888888888888
 40
0.9166666666666666
 40
0.9166666666666666
 40
0.9166666666666666
 40
0.9166666666666666
 40
0.9444444444444444
 40
0.9444444444444444
 40
0.9444444444444444
 40
0.9444444444444444
 40
1.0
 40
1.0
 40
1.0
 40
1.0
 10
-7.00079
 20
1.71868
 30
0.0
 10
-7.00079
 20
1.71868
 30
0.0
 10
-7.01247
 20
1.70217
 30
0.0
 10
-7.01247
 20
1.70217
 30
0.0
 10
-7.01247
 20
1.70217
 30
0.0
 10
-7.01247
 20
1.70217
 30
0.0
 10
-7.01247
 20
1.70217
 30
0.0
 10
-7.0183
 20
1.69391
 30
0.0
 10
-7.0183
 20
1.69391
 30
0.0
 10
-7.0183
 20
1.69391
 30
0.0
 10
-7.07666
 20
1.64438
 30
0.0
 10
-7.07666
 20
1.64438
 30
0.0
 10
-7.07666
 20
1.64438
 30
0.0
 10
-7.12919
 20
1.59484
 30
0.0
 10
-7.11168
 20
1.55356
 30
0.0
 10
-7.11168
 20
1.42147
 30
0.0
 10
-7.11168
 20
1.42147
 30
0.0
 10
-7.11168
 20
1.42147
 30
0.0
 10
-7.11168
 20
-4.63005
 30
0.0
 10
-7.11168
 20
-4.63005
 30
0.0
 10
-7.11168
 20
-4.63005
 30
0.0
 10
-7.10584
 20
-4.67959
 30
0.0
 10
-7.11751
 20
-4.64656
 30
0.0
 10
-7.10001
 20
-4.67133
 30
0.0
 10
-7.10001
 20
-4.67133
 30
0.0
 10
-7.06499
 20
-4.70435
 30
0.0
 10
-5.50679
 20
-4.68784
 30
0.0
 10
-5.33755
 20
-4.68784
 30
0.0
 10
-5.33755
 20
-4.68784
 30
0.0
 10
-5.33755
 20
-4.68784
 30
0.0
 10
-0.46453
 20
-4.68784
 30
0.0
 10
-0.46453
 20
-4.68784
 30
0.0
 10
-0.46453
 20
-4.68784
 30
0.0
 10
-0.38283
 20
-4.68784
 30
0.0
 10
-0.07352
 20
-4.71261
 30
0.0
 10
-0.03267
 20
-4.68784
 30
0.0
 10
-0.03267
 20
-4.68784
 30
0.0
 10
-0.01516
 20
-4.66307
 30
0.0
 10
-0.02683
 20
-0.13063
 30
0.0
 10
-0.02683
 20
0.13356
 30
0.0
 10
-0.02683
 20
0.13356
 30
0.0
 10
-0.02683
 20
0.13356
 30
0.0
 10
-0.02683
 20
1.35542
 30
0.0
 10
-0.02683
 20
1.35542
 30
0.0
 10
-0.02683
 20
1.35542
 30
0.0
 10
-0.02683
 20
1.42147
 30
0.0
 10
-0.02683
 20
1.48752
 30
0.0
 10
-0.02683
 20
1.55356
 30
0.0
 10
-0.02683
 20
1.55356
 30
0.0
 10
-0.03267
 20
1.61961
 30
0.0
 10
-0.02683
 20
1.58659
 30
0.0
 10
-0.07352
 20
1.63612
 30
0.0
 10
-0.07352
 20
1.63612
 30
0.0
 10
-0.10854
 20
1.6774
 30
0.0
 10
-0.09687
 20
1.65263
 30
0.0
 10
-0.1027
 20
1.68566
 30
0.0
 10
-0.1027
 20
1.68566
 30
0.0
 10
-0.04434
 20
1.68566
 30
0.0
 10
-0.07936
 20
1.6774
 30
0.0
 10
-0.04434
 20
1.66914
 30
0.0
 10
-0.04434
 20
1.66914
 30
0.0
 10
0.00234
 20
1.66914
 30
0.0
 10
-0.04434
 20
1.6774
 30
0.0
 10
0.00818
 20
1.68566
 30
0.0
 10
0.00818
 20
1.68566
 30
0.0
 10
0.06654
 20
1.69391
 30
0.0
 10
0.0432
 20
1.66914
 30
0.0
 10
0.09572
 20
1.66914
 30
0.0
 10
0.09572
 20
1.66914
 30
0.0
 10
0.09572
 20
1.66914
 30
0.0
 10
0.11323
 20
1.6774
 30
0.0
 10
0.11323
 20
1.6774
 30
0.0
 10
0.11323
 20
1.6774
 30
0.0
 10
0.11323
 20
1.6774
 30
0.0
 10
0.11906
 20
1.6774
 30
0.0
 10
0.1249
 20
1.68566
 30
0.0
 10
0.1249
 20
1.68566
 30
0.0
 10
0.23578
 20
1.6774
 30
0.0
 10
0.1891
 20
1.64438
 30
0.0
 10
0.30581
 20
1.70217
 30
0.0
 10
0.30581
 20
1.70217
 30
0.0
 10
0.30581
 20
1.70217
 30
0.0
 10
0.30581
 20
3.55973
 30
0.0
 10
0.30581
 20
3.55973
 30
0.0
 10
0.30581
 20
3.55973
 30
0.0
 10
0.18326
 20
3.61752
 30
0.0
 10
0.22995
 20
3.57624
 30
0.0
 10
0.10739
 20
3.59275
 30
0.0
 10
0.10739
 20
3.59275
 30
0.0
 10
0.10739
 20
3.59275
 30
0.0
 10
-0.58709
 20
3.55973
 30
0.0
 10
-0.58709
 20
3.55973
 30
0.0
 10
-0.58709
 20
3.55973
 30
0.0
 10
-0.79718
 20
3.54322
 30
0.0
 10
-1.01311
 20
3.49368
 30
0.0
 10
-1.21153
 20
3.42764
 30
0.0
 10
-1.21153
 20
3.42764
 30
0.0
 10
-1.27573
 20
3.40287
 30
0.0
 10
-1.33409
 20
3.36984
 30
0.0
 10
-1.39245
 20
3.34508
 30
0.0
 10
-1.39245
 20
3.34508
 30
0.0
 10
-1.42746
 20
3.42764
 30
0.0
 10
-1.4333
 20
3.46066
 30
0.0
 10
-1.49166
 20
3.51019
 30
0.0
 10
-1.49166
 20
3.51019
 30
0.0
 10
-1.55002
 20
3.55147
 30
0.0
 10
-1.61421
 20
3.56798
 30
0.0
 10
-1.70175
 20
3.56798
 30
0.0
 10
-1.70175
 20
3.56798
 30
0.0
 10
-2.57131
 20
3.57624
 30
0.0
 10
-3.49922
 20
3.56798
 30
0.0
 10
-4.37462
 20
3.56798
 30
0.0
 10
-4.37462
 20
3.56798
 30
0.0
 10
-4.57888
 20
3.56798
 30
0.0
 10
-5.2967
 20
3.55973
 30
0.0
 10
-5.4426
 20
3.56798
 30
0.0
 10
-5.4426
 20
3.56798
 30
0.0
 10
-5.4601
 20
3.60926
 30
0.0
 10
-5.4601
 20
3.64229
 30
0.0
 10
-5.48345
 20
3.6588
 30
0.0
 10
-5.48345
 20
3.6588
 30
0.0
 10
-5.5243
 20
3.66705
 30
0.0
 10
-7.27508
 20
3.67531
 30
0.0
 10
-7.33344
 20
3.6588
 30
0.0
 10
-7.33344
 20
3.6588
 30
0.0
 10
-7.38597
 20
3.63403
 30
0.0
 10
-7.36262
 20
3.51845
 30
0.0
 10
-7.36262
 20
3.49368
 30
0.0
 10
-7.36262
 20
3.49368
 30
0.0
 10
-7.38597
 20
3.27077
 30
0.0
 10
-7.33928
 20
2.77543
 30
0.0
 10
-7.31594
 20
2.5938
 30
0.0
 10
-7.31594
 20
2.5938
 30
0.0
 10
-7.28676
 20
2.37915
 30
0.0
 10
-7.19338
 20
2.09019
 30
0.0
 10
-7.09417
 20
1.90856
 30
0.0
 10
-7.09417
 20
1.90856
 30
0.0
 10
-7.06499
 20
1.85903
 30
0.0
 10
-6.98329
 20
1.7517
 30
0.0
 10
-7.00079
 20
1.71868
 30
0.0
  0
TEXT
  5
65
330
1F
100
AcDbEntity
  8
Warstwa 1
100
AcDbText
 10
-8.306670354546922
 20
-1.623305381330286
 30
0.0
 40
0.2031984
  1
  849,7  
 50
90.0
 51
-0.0000015352345087
  7
0
100
AcDbText
  0
TEXT
  5
66
330
1F
100
AcDbEntity
  8
Warstwa 1
100
AcDbText
 10
-7.645706146481783
 20
2.055054924518422
 30
0.0
 40
0.2031984
  1
  40,7  
 50
90.0
 51
-0.0000015352345087
  7
0
100
AcDbText
  0
TEXT
  5
67
330
1F
100
AcDbEntity
  8
Warstwa 1
100
AcDbText
 10
0.8503085928832664
 20
-1.505430909707719
 30
0.0
 40
0.2031984
  1
  745  
 50
90.0
 51
-0.0000015352345087
  7
0
100
AcDbText
  0
TEXT
  5
68
330
1F
100
AcDbEntity
  8
Warstwa 1
100
AcDbText
 10
-4.027276357200245
 20
11.98612616822264
 30
0.0
 40
0.2031984
  1
  725  
 41
0.9991996426582328
 51
-0.0000015352345087
  7
0
100
AcDbText
  0
TEXT
  5
69
330
1F
100
AcDbEntity
  8
Warstwa 1
100
AcDbText
 10
-8.618345881971917
 20
7.743459852185564
 30
0.0
 40
0.2031984
  1
  570  
 50
90.0
 51
-0.0000015352345087
  7
0
100
AcDbText
  0
TEXT
  5
6A
330
1F
100
AcDbEntity
  8
Warstwa 1
100
AcDbText
 10
-7.63226179017875
 20
7.841876576100096
 30
0.0
 40
0.2031984
  1
  280,5  
 50
90.0
 51
-0.0000015352345087
  7
0
100
AcDbText
  0
TEXT
  5
6B
330
1F
100
AcDbEntity
  8
Warstwa 1
100
AcDbText
 10
-7.63226179017875
 20
9.9213176137671
 30
0.0
 40
0.2031984
  1
  123  
 50
90.0
 51
-0.0000015352345087
  7
0
100
AcDbText
  0
TEXT
  5
6C
330
1F
100
AcDbEntity
  8
Warstwa 1
100
AcDbText
 10
-4.027276357200245
 20
11.5295154704083
 30
0.0
 40
0.2031984
  1
  580  
 41
0.9991996426582328
 51
-0.0000015352345087
  7
0
100
AcDbText
  0
TEXT
  5
6E
330
1F
100
AcDbEntity
  8
Warstwa 1
100
AcDbText
 10
1.426376859087349
 20
6.288664789127677
 30
0.0
 40
0.2031984
  1
  
 50
90.0
 51
-0.0000015352345087
  7
1
100
AcDbText
  0
SPLINE
  5
6F
330
1F
100
AcDbEntity
  8
Warstwa 1
370
    13
100
AcDbSpline
210
0.0
220
0.0
230
1.0
 70
    11
 71
     3
 72
   168
 73
   164
 74
     0
 42
0.0000000001
 43
0.0000000001
 40
0.0
 40
0.0
 40
0.0
 40
0.0
 40
0.0238095238095238
 40
0.0238095238095238
 40
0.0238095238095238
 40
0.0238095238095238
 40
0.0476190476190476
 40
0.0476190476190476
 40
0.0476190476190476
 40
0.0476190476190476
 40
0.0714285714285714
 40
0.0714285714285714
 40
0.0714285714285714
 40
0.0714285714285714
 40
0.0952380952380952
 40
0.0952380952380952
 40
0.0952380952380952
 40
0.0952380952380952
 40
0.119047619047619
 40
0.119047619047619
 40
0.119047619047619
 40
0.119047619047619
 40
0.1428571428571428
 40
0.1428571428571428
 40
0.1428571428571428
 40
0.1428571428571428
 40
0.1666666666666667
 40
0.1666666666666667
 40
0.1666666666666667
 40
0.1666666666666667
 40
0.1904761904761905
 40
0.1904761904761905
 40
0.1904761904761905
 40
0.1904761904761905
 40
0.2142857142857143
 40
0.2142857142857143
 40
0.2142857142857143
 40
0.2142857142857143
 40
0.2380952380952381
 40
0.2380952380952381
 40
0.2380952380952381
 40
0.2380952380952381
 40
0.2619047619047619
 40
0.2619047619047619
 40
0.2619047619047619
 40
0.2619047619047619
 40
0.2857142857142857
 40
0.2857142857142857
 40
0.2857142857142857
 40
0.2857142857142857
 40
0.3095238095238095
 40
0.3095238095238095
 40
0.3095238095238095
 40
0.3095238095238095
 40
0.3333333333333333
 40
0.3333333333333333
 40
0.3333333333333333
 40
0.3333333333333333
 40
0.3571428571428572
 40
0.3571428571428572
 40
0.3571428571428572
 40
0.3571428571428572
 40
0.3809523809523809
 40
0.3809523809523809
 40
0.3809523809523809
 40
0.3809523809523809
 40
0.4047619047619048
 40
0.4047619047619048
 40
0.4047619047619048
 40
0.4047619047619048
 40
0.4285714285714285
 40
0.4285714285714285
 40
0.4285714285714285
 40
0.4285714285714285
 40
0.4523809523809524
 40
0.4523809523809524
 40
0.4523809523809524
 40
0.4523809523809524
 40
0.4761904761904762
 40
0.4761904761904762
 40
0.4761904761904762
 40
0.4761904761904762
 40
0.5
 40
0.5
 40
0.5
 40
0.5
 40
0.5238095238095238
 40
0.5238095238095238
 40
0.5238095238095238
 40
0.5238095238095238
 40
0.5476190476190477
 40
0.5476190476190477
 40
0.5476190476190477
 40
0.5476190476190477
 40
0.5714285714285714
 40
0.5714285714285714
 40
0.5714285714285714
 40
0.5714285714285714
 40
0.5952380952380952
 40
0.5952380952380952
 40
0.5952380952380952
 40
0.5952380952380952
 40
0.6190476190476191
 40
0.6190476190476191
 40
0.6190476190476191
 40
0.6190476190476191
 40
0.6428571428571429
 40
0.6428571428571429
 40
0.6428571428571429
 40
0.6428571428571429
 40
0.6666666666666666
 40
0.6666666666666666
 40
0.6666666666666666
 40
0.6666666666666666
 40
0.6904761904761905
 40
0.6904761904761905
 40
0.6904761904761905
 40
0.6904761904761905
 40
0.7142857142857143
 40
0.7142857142857143
 40
0.7142857142857143
 40
0.7142857142857143
 40
0.7380952380952381
 40
0.7380952380952381
 40
0.7380952380952381
 40
0.7380952380952381
 40
0.7619047619047619
 40
0.7619047619047619
 40
0.7619047619047619
 40
0.7619047619047619
 40
0.7857142857142857
 40
0.7857142857142857
 40
0.7857142857142857
 40
0.7857142857142857
 40
0.8095238095238095
 40
0.8095238095238095
 40
0.8095238095238095
 40
0.8095238095238095
 40
0.8333333333333334
 40
0.8333333333333334
 40
0.8333333333333334
 40
0.8333333333333334
 40
0.8571428571428571
 40
0.8571428571428571
 40
0.8571428571428571
 40
0.8571428571428571
 40
0.8809523809523809
 40
0.8809523809523809
 40
0.8809523809523809
 40
0.8809523809523809
 40
0.9047619047619048
 40
0.9047619047619048
 40
0.9047619047619048
 40
0.9047619047619048
 40
0.9285714285714286
 40
0.9285714285714286
 40
0.9285714285714286
 40
0.9285714285714286
 40
0.9523809523809523
 40
0.9523809523809523
 40
0.9523809523809523
 40
0.9523809523809523
 40
1.0
 40
1.0
 40
1.0
 40
1.0
 10
1.33188
 20
6.68781
 30
0.0
 10
1.33188
 20
6.68781
 30
0.0
 10
1.31841
 20
6.68679
 30
0.0
 10
1.31841
 20
6.68679
 30
0.0
 10
1.31841
 20
6.68679
 30
0.0
 10
1.31841
 20
6.68679
 30
0.0
 10
1.30521
 20
6.68368
 30
0.0
 10
1.30521
 20
6.68368
 30
0.0
 10
1.30521
 20
6.68368
 30
0.0
 10
1.30521
 20
6.68368
 30
0.0
 10
1.29272
 20
6.67864
 30
0.0
 10
1.29272
 20
6.67864
 30
0.0
 10
1.29272
 20
6.67864
 30
0.0
 10
1.29272
 20
6.67864
 30
0.0
 10
1.28108
 20
6.67172
 30
0.0
 10
1.28108
 20
6.67172
 30
0.0
 10
1.28108
 20
6.67172
 30
0.0
 10
1.28108
 20
6.67172
 30
0.0
 10
1.27064
 20
6.66311
 30
0.0
 10
1.27064
 20
6.66311
 30
0.0
 10
1.27064
 20
6.66311
 30
0.0
 10
1.27064
 20
6.66311
 30
0.0
 10
1.26164
 20
6.65302
 30
0.0
 10
1.26164
 20
6.65302
 30
0.0
 10
1.26164
 20
6.65302
 30
0.0
 10
1.26164
 20
6.65302
 30
0.0
 10
1.25431
 20
6.64167
 30
0.0
 10
1.25431
 20
6.64167
 30
0.0
 10
1.25431
 20
6.64167
 30
0.0
 10
1.25431
 20
6.64167
 30
0.0
 10
1.24877
 20
6.62932
 30
0.0
 10
1.24877
 20
6.62932
 30
0.0
 10
1.24877
 20
6.62932
 30
0.0
 10
1.24877
 20
6.62932
 30
0.0
 10
1.24513
 20
6.61627
 30
0.0
 10
1.24513
 20
6.61627
 30
0.0
 10
1.24513
 20
6.61627
 30
0.0
 10
1.24513
 20
6.61627
 30
0.0
 10
1.24358
 20
6.60286
 30
0.0
 10
1.24358
 20
6.60286
 30
0.0
 10
1.24358
 20
6.60286
 30
0.0
 10
1.24358
 20
6.60286
 30
0.0
 10
1.24415
 20
6.58931
 30
0.0
 10
1.24415
 20
6.58931
 30
0.0
 10
1.24415
 20
6.58931
 30
0.0
 10
1.24415
 20
6.58931
 30
0.0
 10
1.24669
 20
6.57605
 30
0.0
 10
1.24669
 20
6.57605
 30
0.0
 10
1.24669
 20
6.57605
 30
0.0
 10
1.24669
 20
6.57605
 30
0.0
 10
1.25131
 20
6.56331
 30
0.0
 10
1.25131
 20
6.56331
 30
0.0
 10
1.25131
 20
6.56331
 30
0.0
 10
1.25131
 20
6.56331
 30
0.0
 10
1.25773
 20
6.55142
 30
0.0
 10
1.25773
 20
6.55142
 30
0.0
 10
1.25773
 20
6.55142
 30
0.0
 10
1.25773
 20
6.55142
 30
0.0
 10
1.26595
 20
6.54066
 30
0.0
 10
1.26595
 20
6.54066
 30
0.0
 10
1.26595
 20
6.54066
 30
0.0
 10
1.26595
 20
6.54066
 30
0.0
 10
1.27568
 20
6.53128
 30
0.0
 10
1.27568
 20
6.53128
 30
0.0
 10
1.27568
 20
6.53128
 30
0.0
 10
1.27568
 20
6.53128
 30
0.0
 10
1.28676
 20
6.52352
 30
0.0
 10
1.28676
 20
6.52352
 30
0.0
 10
1.28676
 20
6.52352
 30
0.0
 10
1.28676
 20
6.52352
 30
0.0
 10
1.29886
 20
6.51752
 30
0.0
 10
1.29886
 20
6.51752
 30
0.0
 10
1.29886
 20
6.51752
 30
0.0
 10
1.29886
 20
6.51752
 30
0.0
 10
1.31177
 20
6.51343
 30
0.0
 10
1.31177
 20
6.51343
 30
0.0
 10
1.31177
 20
6.51343
 30
0.0
 10
1.31177
 20
6.51343
 30
0.0
 10
1.32514
 20
6.51135
 30
0.0
 10
1.32514
 20
6.51135
 30
0.0
 10
1.32514
 20
6.51135
 30
0.0
 10
1.32514
 20
6.51135
 30
0.0
 10
1.33866
 20
6.51135
 30
0.0
 10
1.33866
 20
6.51135
 30
0.0
 10
1.33866
 20
6.51135
 30
0.0
 10
1.33866
 20
6.51135
 30
0.0
 10
1.35203
 20
6.51343
 30
0.0
 10
1.35203
 20
6.51343
 30
0.0
 10
1.35203
 20
6.51343
 30
0.0
 10
1.35203
 20
6.51343
 30
0.0
 10
1.36494
 20
6.51752
 30
0.0
 10
1.36494
 20
6.51752
 30
0.0
 10
1.36494
 20
6.51752
 30
0.0
 10
1.36494
 20
6.51752
 30
0.0
 10
1.37704
 20
6.52352
 30
0.0
 10
1.37704
 20
6.52352
 30
0.0
 10
1.37704
 20
6.52352
 30
0.0
 10
1.37704
 20
6.52352
 30
0.0
 10
1.38812
 20
6.53128
 30
0.0
 10
1.38812
 20
6.53128
 30
0.0
 10
1.38812
 20
6.53128
 30
0.0
 10
1.38812
 20
6.53128
 30
0.0
 10
1.39785
 20
6.54066
 30
0.0
 10
1.39785
 20
6.54066
 30
0.0
 10
1.39785
 20
6.54066
 30
0.0
 10
1.39785
 20
6.54066
 30
0.0
 10
1.40607
 20
6.55142
 30
0.0
 10
1.40607
 20
6.55142
 30
0.0
 10
1.40607
 20
6.55142
 30
0.0
 10
1.40607
 20
6.55142
 30
0.0
 10
1.41249
 20
6.56331
 30
0.0
 10
1.41249
 20
6.56331
 30
0.0
 10
1.41249
 20
6.56331
 30
0.0
 10
1.41249
 20
6.56331
 30
0.0
 10
1.41708
 20
6.57605
 30
0.0
 10
1.41708
 20
6.57605
 30
0.0
 10
1.41708
 20
6.57605
 30
0.0
 10
1.41708
 20
6.57605
 30
0.0
 10
1.41965
 20
6.58931
 30
0.0
 10
1.41965
 20
6.58931
 30
0.0
 10
1.41965
 20
6.58931
 30
0.0
 10
1.41965
 20
6.58931
 30
0.0
 10
1.42022
 20
6.60286
 30
0.0
 10
1.42022
 20
6.60286
 30
0.0
 10
1.42022
 20
6.60286
 30
0.0
 10
1.42022
 20
6.60286
 30
0.0
 10
1.41863
 20
6.61627
 30
0.0
 10
1.41863
 20
6.61627
 30
0.0
 10
1.41863
 20
6.61627
 30
0.0
 10
1.41863
 20
6.61627
 30
0.0
 10
1.41503
 20
6.62932
 30
0.0
 10
1.41503
 20
6.62932
 30
0.0
 10
1.41503
 20
6.62932
 30
0.0
 10
1.41503
 20
6.62932
 30
0.0
 10
1.40949
 20
6.64167
 30
0.0
 10
1.40949
 20
6.64167
 30
0.0
 10
1.40949
 20
6.64167
 30
0.0
 10
1.40949
 20
6.64167
 30
0.0
 10
1.40216
 20
6.65302
 30
0.0
 10
1.40216
 20
6.65302
 30
0.0
 10
1.40216
 20
6.65302
 30
0.0
 10
1.40216
 20
6.65302
 30
0.0
 10
1.39316
 20
6.66311
 30
0.0
 10
1.39316
 20
6.66311
 30
0.0
 10
1.39316
 20
6.66311
 30
0.0
 10
1.39316
 20
6.66311
 30
0.0
 10
1.38272
 20
6.67172
 30
0.0
 10
1.38272
 20
6.67172
 30
0.0
 10
1.38272
 20
6.67172
 30
0.0
 10
1.38272
 20
6.67172
 30
0.0
 10
1.37108
 20
6.67864
 30
0.0
 10
1.37108
 20
6.67864
 30
0.0
 10
1.37108
 20
6.67864
 30
0.0
 10
1.37108
 20
6.67864
 30
0.0
 10
1.35859
 20
6.68368
 30
0.0
 10
1.35859
 20
6.68368
 30
0.0
 10
1.35859
 20
6.68368
 30
0.0
 10
1.35859
 20
6.68368
 30
0.0
 10
1.34539
 20
6.68679
 30
0.0
 10
1.34539
 20
6.68679
 30
0.0
 10
1.34539
 20
6.68679
 30
0.0
 10
1.34539
 20
6.68679
 30
0.0
 10
1.33188
 20
6.68781
 30
0.0
 10
1.33188
 20
6.68781
 30
0.0
  0
SPLINE
  5
70
330
1F
100
AcDbEntity
  8
Warstwa 1
370
    13
100
AcDbSpline
210
0.0
220
0.0
230
1.0
 70
    24
 71
     3
 72
     8
 73
     4
 74
     0
 42
0.0000000001
 43
0.0000000001
 40
0.0
 40
0.0
 40
0.0
 40
0.0
 40
1.0
 40
1.0
 40
1.0
 40
1.0
 10
1.45811
 20
6.54896
 30
0.0
 10
1.45811
 20
6.54896
 30
0.0
 10
1.20569
 20
6.64996
 30
0.0
 10
1.20569
 20
6.64996
 30
0.0
  0
TEXT
  5
71
330
1F
100
AcDbEntity
  8
Warstwa 1
100
AcDbText
 10
1.426376859087349
 20
6.745243736953375
 30
0.0
 40
0.2031984
  1
190  
 50
90.0
 51
-0.0000015352345087
  7
0
100
AcDbText
  0
TEXT
  5
73
330
1F
100
AcDbEntity
  8
Warstwa 1
100
AcDbText
 10
0.9903436816916857
 20
6.288691656673625
 30
0.0
 40
0.2031984
  1
  
 50
90.0
 51
-0.0000015352345087
  7
2
100
AcDbText
  0
SPLINE
  5
74
330
1F
100
AcDbEntity
  8
Warstwa 1
370
    13
100
AcDbSpline
210
0.0
220
0.0
230
1.0
 70
    11
 71
     3
 72
   168
 73
   164
 74
     0
 42
0.0000000001
 43
0.0000000001
 40
0.0
 40
0.0
 40
0.0
 40
0.0
 40
0.0238095238095238
 40
0.0238095238095238
 40
0.0238095238095238
 40
0.0238095238095238
 40
0.0476190476190476
 40
0.0476190476190476
 40
0.0476190476190476
 40
0.0476190476190476
 40
0.0714285714285714
 40
0.0714285714285714
 40
0.0714285714285714
 40
0.0714285714285714
 40
0.0952380952380952
 40
0.0952380952380952
 40
0.0952380952380952
 40
0.0952380952380952
 40
0.119047619047619
 40
0.119047619047619
 40
0.119047619047619
 40
0.119047619047619
 40
0.1428571428571428
 40
0.1428571428571428
 40
0.1428571428571428
 40
0.1428571428571428
 40
0.1666666666666667
 40
0.1666666666666667
 40
0.1666666666666667
 40
0.1666666666666667
 40
0.1904761904761905
 40
0.1904761904761905
 40
0.1904761904761905
 40
0.1904761904761905
 40
0.2142857142857143
 40
0.2142857142857143
 40
0.2142857142857143
 40
0.2142857142857143
 40
0.2380952380952381
 40
0.2380952380952381
 40
0.2380952380952381
 40
0.2380952380952381
 40
0.2619047619047619
 40
0.2619047619047619
 40
0.2619047619047619
 40
0.2619047619047619
 40
0.2857142857142857
 40
0.2857142857142857
 40
0.2857142857142857
 40
0.2857142857142857
 40
0.3095238095238095
 40
0.3095238095238095
 40
0.3095238095238095
 40
0.3095238095238095
 40
0.3333333333333333
 40
0.3333333333333333
 40
0.3333333333333333
 40
0.3333333333333333
 40
0.3571428571428572
 40
0.3571428571428572
 40
0.3571428571428572
 40
0.3571428571428572
 40
0.3809523809523809
 40
0.3809523809523809
 40
0.3809523809523809
 40
0.3809523809523809
 40
0.4047619047619048
 40
0.4047619047619048
 40
0.4047619047619048
 40
0.4047619047619048
 40
0.4285714285714285
 40
0.4285714285714285
 40
0.4285714285714285
 40
0.4285714285714285
 40
0.4523809523809524
 40
0.4523809523809524
 40
0.4523809523809524
 40
0.4523809523809524
 40
0.4761904761904762
 40
0.4761904761904762
 40
0.4761904761904762
 40
0.4761904761904762
 40
0.5
 40
0.5
 40
0.5
 40
0.5
 40
0.5238095238095238
 40
0.5238095238095238
 40
0.5238095238095238
 40
0.5238095238095238
 40
0.5476190476190477
 40
0.5476190476190477
 40
0.5476190476190477
 40
0.5476190476190477
 40
0.5714285714285714
 40
0.5714285714285714
 40
0.5714285714285714
 40
0.5714285714285714
 40
0.5952380952380952
 40
0.5952380952380952
 40
0.5952380952380952
 40
0.5952380952380952
 40
0.6190476190476191
 40
0.6190476190476191
 40
0.6190476190476191
 40
0.6190476190476191
 40
0.6428571428571429
 40
0.6428571428571429
 40
0.6428571428571429
 40
0.6428571428571429
 40
0.6666666666666666
 40
0.6666666666666666
 40
0.6666666666666666
 40
0.6666666666666666
 40
0.6904761904761905
 40
0.6904761904761905
 40
0.6904761904761905
 40
0.6904761904761905
 40
0.7142857142857143
 40
0.7142857142857143
 40
0.7142857142857143
 40
0.7142857142857143
 40
0.7380952380952381
 40
0.7380952380952381
 40
0.7380952380952381
 40
0.7380952380952381
 40
0.7619047619047619
 40
0.7619047619047619
 40
0.7619047619047619
 40
0.7619047619047619
 40
0.7857142857142857
 40
0.7857142857142857
 40
0.7857142857142857
 40
0.7857142857142857
 40
0.8095238095238095
 40
0.8095238095238095
 40
0.8095238095238095
 40
0.8095238095238095
 40
0.8333333333333334
 40
0.8333333333333334
 40
0.8333333333333334
 40
0.8333333333333334
 40
0.8571428571428571
 40
0.8571428571428571
 40
0.8571428571428571
 40
0.8571428571428571
 40
0.8809523809523809
 40
0.8809523809523809
 40
0.8809523809523809
 40
0.8809523809523809
 40
0.9047619047619048
 40
0.9047619047619048
 40
0.9047619047619048
 40
0.9047619047619048
 40
0.9285714285714286
 40
0.9285714285714286
 40
0.9285714285714286
 40
0.9285714285714286
 40
0.9523809523809523
 40
0.9523809523809523
 40
0.9523809523809523
 40
0.9523809523809523
 40
1.0
 40
1.0
 40
1.0
 40
1.0
 10
0.8958
 20
6.68781
 30
0.0
 10
0.8958
 20
6.68781
 30
0.0
 10
0.88232
 20
6.68679
 30
0.0
 10
0.88232
 20
6.68679
 30
0.0
 10
0.88232
 20
6.68679
 30
0.0
 10
0.88232
 20
6.68679
 30
0.0
 10
0.86913
 20
6.68368
 30
0.0
 10
0.86913
 20
6.68368
 30
0.0
 10
0.86913
 20
6.68368
 30
0.0
 10
0.86913
 20
6.68368
 30
0.0
 10
0.85664
 20
6.67864
 30
0.0
 10
0.85664
 20
6.67864
 30
0.0
 10
0.85664
 20
6.67864
 30
0.0
 10
0.85664
 20
6.67864
 30
0.0
 10
0.845
 20
6.67172
 30
0.0
 10
0.845
 20
6.67172
 30
0.0
 10
0.845
 20
6.67172
 30
0.0
 10
0.845
 20
6.67172
 30
0.0
 10
0.83456
 20
6.66311
 30
0.0
 10
0.83456
 20
6.66311
 30
0.0
 10
0.83456
 20
6.66311
 30
0.0
 10
0.83456
 20
6.66311
 30
0.0
 10
0.82556
 20
6.65302
 30
0.0
 10
0.82556
 20
6.65302
 30
0.0
 10
0.82556
 20
6.65302
 30
0.0
 10
0.82556
 20
6.65302
 30
0.0
 10
0.81822
 20
6.64167
 30
0.0
 10
0.81822
 20
6.64167
 30
0.0
 10
0.81822
 20
6.64167
 30
0.0
 10
0.81822
 20
6.64167
 30
0.0
 10
0.81269
 20
6.62932
 30
0.0
 10
0.81269
 20
6.62932
 30
0.0
 10
0.81269
 20
6.62932
 30
0.0
 10
0.81269
 20
6.62932
 30
0.0
 10
0.80905
 20
6.61627
 30
0.0
 10
0.80905
 20
6.61627
 30
0.0
 10
0.80905
 20
6.61627
 30
0.0
 10
0.80905
 20
6.61627
 30
0.0
 10
0.8075
 20
6.60286
 30
0.0
 10
0.8075
 20
6.60286
 30
0.0
 10
0.8075
 20
6.60286
 30
0.0
 10
0.8075
 20
6.60286
 30
0.0
 10
0.80806
 20
6.58931
 30
0.0
 10
0.80806
 20
6.58931
 30
0.0
 10
0.80806
 20
6.58931
 30
0.0
 10
0.80806
 20
6.58931
 30
0.0
 10
0.8106
 20
6.57605
 30
0.0
 10
0.8106
 20
6.57605
 30
0.0
 10
0.8106
 20
6.57605
 30
0.0
 10
0.8106
 20
6.57605
 30
0.0
 10
0.81523
 20
6.56331
 30
0.0
 10
0.81523
 20
6.56331
 30
0.0
 10
0.81523
 20
6.56331
 30
0.0
 10
0.81523
 20
6.56331
 30
0.0
 10
0.82165
 20
6.55142
 30
0.0
 10
0.82165
 20
6.55142
 30
0.0
 10
0.82165
 20
6.55142
 30
0.0
 10
0.82165
 20
6.55142
 30
0.0
 10
0.82983
 20
6.54066
 30
0.0
 10
0.82983
 20
6.54066
 30
0.0
 10
0.82983
 20
6.54066
 30
0.0
 10
0.82983
 20
6.54066
 30
0.0
 10
0.8396
 20
6.53128
 30
0.0
 10
0.8396
 20
6.53128
 30
0.0
 10
0.8396
 20
6.53128
 30
0.0
 10
0.8396
 20
6.53128
 30
0.0
 10
0.85068
 20
6.52352
 30
0.0
 10
0.85068
 20
6.52352
 30
0.0
 10
0.85068
 20
6.52352
 30
0.0
 10
0.85068
 20
6.52352
 30
0.0
 10
0.86278
 20
6.51752
 30
0.0
 10
0.86278
 20
6.51752
 30
0.0
 10
0.86278
 20
6.51752
 30
0.0
 10
0.86278
 20
6.51752
 30
0.0
 10
0.87569
 20
6.51343
 30
0.0
 10
0.87569
 20
6.51343
 30
0.0
 10
0.87569
 20
6.51343
 30
0.0
 10
0.87569
 20
6.51343
 30
0.0
 10
0.88906
 20
6.51135
 30
0.0
 10
0.88906
 20
6.51135
 30
0.0
 10
0.88906
 20
6.51135
 30
0.0
 10
0.88906
 20
6.51135
 30
0.0
 10
0.90257
 20
6.51135
 30
0.0
 10
0.90257
 20
6.51135
 30
0.0
 10
0.90257
 20
6.51135
 30
0.0
 10
0.90257
 20
6.51135
 30
0.0
 10
0.91594
 20
6.51343
 30
0.0
 10
0.91594
 20
6.51343
 30
0.0
 10
0.91594
 20
6.51343
 30
0.0
 10
0.91594
 20
6.51343
 30
0.0
 10
0.92885
 20
6.51752
 30
0.0
 10
0.92885
 20
6.51752
 30
0.0
 10
0.92885
 20
6.51752
 30
0.0
 10
0.92885
 20
6.51752
 30
0.0
 10
0.94096
 20
6.52352
 30
0.0
 10
0.94096
 20
6.52352
 30
0.0
 10
0.94096
 20
6.52352
 30
0.0
 10
0.94096
 20
6.52352
 30
0.0
 10
0.95203
 20
6.53128
 30
0.0
 10
0.95203
 20
6.53128
 30
0.0
 10
0.95203
 20
6.53128
 30
0.0
 10
0.95203
 20
6.53128
 30
0.0
 10
0.96177
 20
6.54066
 30
0.0
 10
0.96177
 20
6.54066
 30
0.0
 10
0.96177
 20
6.54066
 30
0.0
 10
0.96177
 20
6.54066
 30
0.0
 10
0.96999
 20
6.55142
 30
0.0
 10
0.96999
 20
6.55142
 30
0.0
 10
0.96999
 20
6.55142
 30
0.0
 10
0.96999
 20
6.55142
 30
0.0
 10
0.97641
 20
6.56331
 30
0.0
 10
0.97641
 20
6.56331
 30
0.0
 10
0.97641
 20
6.56331
 30
0.0
 10
0.97641
 20
6.56331
 30
0.0
 10
0.981
 20
6.57605
 30
0.0
 10
0.981
 20
6.57605
 30
0.0
 10
0.981
 20
6.57605
 30
0.0
 10
0.981
 20
6.57605
 30
0.0
 10
0.98357
 20
6.58931
 30
0.0
 10
0.98357
 20
6.58931
 30
0.0
 10
0.98357
 20
6.58931
 30
0.0
 10
0.98357
 20
6.58931
 30
0.0
 10
0.9841
 20
6.60286
 30
0.0
 10
0.9841
 20
6.60286
 30
0.0
 10
0.9841
 20
6.60286
 30
0.0
 10
0.9841
 20
6.60286
 30
0.0
 10
0.98255
 20
6.61627
 30
0.0
 10
0.98255
 20
6.61627
 30
0.0
 10
0.98255
 20
6.61627
 30
0.0
 10
0.98255
 20
6.61627
 30
0.0
 10
0.97895
 20
6.62932
 30
0.0
 10
0.97895
 20
6.62932
 30
0.0
 10
0.97895
 20
6.62932
 30
0.0
 10
0.97895
 20
6.62932
 30
0.0
 10
0.97341
 20
6.64167
 30
0.0
 10
0.97341
 20
6.64167
 30
0.0
 10
0.97341
 20
6.64167
 30
0.0
 10
0.97341
 20
6.64167
 30
0.0
 10
0.96607
 20
6.65302
 30
0.0
 10
0.96607
 20
6.65302
 30
0.0
 10
0.96607
 20
6.65302
 30
0.0
 10
0.96607
 20
6.65302
 30
0.0
 10
0.95708
 20
6.66311
 30
0.0
 10
0.95708
 20
6.66311
 30
0.0
 10
0.95708
 20
6.66311
 30
0.0
 10
0.95708
 20
6.66311
 30
0.0
 10
0.94663
 20
6.67172
 30
0.0
 10
0.94663
 20
6.67172
 30
0.0
 10
0.94663
 20
6.67172
 30
0.0
 10
0.94663
 20
6.67172
 30
0.0
 10
0.93499
 20
6.67864
 30
0.0
 10
0.93499
 20
6.67864
 30
0.0
 10
0.93499
 20
6.67864
 30
0.0
 10
0.93499
 20
6.67864
 30
0.0
 10
0.92247
 20
6.68368
 30
0.0
 10
0.92247
 20
6.68368
 30
0.0
 10
0.92247
 20
6.68368
 30
0.0
 10
0.92247
 20
6.68368
 30
0.0
 10
0.90931
 20
6.68679
 30
0.0
 10
0.90931
 20
6.68679
 30
0.0
 10
0.90931
 20
6.68679
 30
0.0
 10
0.90931
 20
6.68679
 30
0.0
 10
0.8958
 20
6.68781
 30
0.0
 10
0.8958
 20
6.68781
 30
0.0
  0
SPLINE
  5
75
330
1F
100
AcDbEntity
  8
Warstwa 1
370
    13
100
AcDbSpline
210
0.0
220
0.0
230
1.0
 70
    24
 71
     3
 72
     8
 73
     4
 74
     0
 42
0.0000000001
 43
0.0000000001
 40
0.0
 40
0.0
 40
0.0
 40
0.0
 40
1.0
 40
1.0
 40
1.0
 40
1.0
 10
1.02202
 20
6.54896
 30
0.0
 10
1.02202
 20
6.54896
 30
0.0
 10
0.76958
 20
6.64996
 30
0.0
 10
0.76958
 20
6.64996
 30
0.0
  0
TEXT
  5
76
330
1F
100
AcDbEntity
  8
Warstwa 1
100
AcDbText
 10
0.9902978205969759
 20
6.745243736953375
 30
0.0
 40
0.2031984
  1
160  
 50
90.0
 51
-0.0000015352345087
  7
0
100
AcDbText
  0
TEXT
  5
77
330
1F
100
AcDbEntity
  8
Warstwa 1
100
AcDbText
 10
-8.401511098406996
 20
11.98612616822264
 30
0.0
 40
0.2031984
  1
  25  
 41
0.9991996426582328
 51
-0.0000015352345087
  7
0
100
AcDbText
  0
TEXT
  5
78
330
1F
100
AcDbEntity
  8
Warstwa 1
100
AcDbText
 10
0.7498342439268163
 20
11.98612616822264
 30
0.0
 40
0.2031984
  1
  32  
 41
0.9991996426582328
 51
-0.0000015352345087
  7
0
100
AcDbText
  0
TEXT
  5
79
330
1F
100
AcDbEntity
  8
Warstwa 1
100
AcDbText
 10
6.421908698989748
 20
4.920130917442592
 30
0.0
 40
0.2031984
  1
  10/25  
 41
0.9991996426582328
 51
-0.0000015352345087
  7
0
100
AcDbText
  0
TEXT
  5
7A
330
1F
100
AcDbEntity
  8
Warstwa 1
100
AcDbText
 10
3.748765056314089
 20
-6.318486646646461
 30
0.0
 40
0.2031984
  1
  235  
 50
90.0
 51
-0.0000015352345087
  7
0
100
AcDbText
  0
TEXT
  5
7B
330
1F
100
AcDbEntity
  8
Warstwa 1
100
AcDbText
 10
-8.175684012502419
 20
-10.92715289001394
 30
0.0
 40
0.2031984
  1
  265  
 50
90.0
 51
-0.0000015352345087
  7
0
100
AcDbText
  0
TEXT
  5
7C
330
1F
100
AcDbEntity
  8
Warstwa 1
100
AcDbText
 10
-4.051582737396492
 20
-12.55245227831693
 30
0.0
 40
0.2031984
  1
  520  
 41
0.9991996426582328
 51
-0.0000015352345087
  7
0
100
AcDbText
  0
TEXT
  5
7D
330
1F
100
AcDbEntity
  8
Warstwa 1
100
AcDbText
 10
-7.718385398267424
 20
-10.87751690509849
 30
0.0
 40
0.2031984
  1
  250  
 50
90.0
 51
-0.0000015352345087
  7
0
100
AcDbText
  0
SPLINE
  5
7E
330
1F
100
AcDbEntity
  8
Warstwa 1
370
    13
100
AcDbSpline
210
0.0
220
0.0
230
1.0
 70
    11
 71
     3
 72
    16
 73
    12
 74
     0
 42
0.0000000001
 43
0.0000000001
 40
0.0
 40
0.0
 40
0.0
 40
0.0
 40
0.25
 40
0.25
 40
0.25
 40
0.25
 40
0.5
 40
0.5
 40
0.5
 40
0.5
 40
1.0
 40
1.0
 40
1.0
 40
1.0
 10
0.04273
 20
11.92284
 30
0.0
 10
0.04273
 20
11.92284
 30
0.0
 10
-0.28747
 20
11.87204
 30
0.0
 10
-0.28747
 20
11.87204
 30
0.0
 10
-0.28747
 20
11.87204
 30
0.0
 10
-0.28747
 20
11.87204
 30
0.0
 10
-0.28747
 20
11.97364
 30
0.0
 10
-0.28747
 20
11.97364
 30
0.0
 10
-0.28747
 20
11.97364
 30
0.0
 10
-0.28747
 20
11.97364
 30
0.0
 10
0.04273
 20
11.92284
 30
0.0
 10
0.04273
 20
11.92284
 30
0.0
  0
SPLINE
  5
7F
330
1F
100
AcDbEntity
  8
Warstwa 1
370
    13
100
AcDbSpline
210
0.0
220
0.0
230
1.0
 70
    11
 71
     3
 72
    16
 73
    12
 74
     0
 42
0.0000000001
 43
0.0000000001
 40
0.0
 40
0.0
 40
0.0
 40
0.0
 40
0.25
 40
0.25
 40
0.25
 40
0.25
 40
0.5
 40
0.5
 40
0.5
 40
0.5
 40
1.0
 40
1.0
 40
1.0
 40
1.0
 10
-7.18227
 20
11.92284
 30
0.0
 10
-7.18227
 20
11.92284
 30
0.0
 10
-6.85207
 20
11.97364
 30
0.0
 10
-6.85207
 20
11.97364
 30
0.0
 10
-6.85207
 20
11.97364
 30
0.0
 10
-6.85207
 20
11.97364
 30
0.0
 10
-6.85207
 20
11.87204
 30
0.0
 10
-6.85207
 20
11.87204
 30
0.0
 10
-6.85207
 20
11.87204
 30
0.0
 10
-6.85207
 20
11.87204
 30
0.0
 10
-7.18227
 20
11.92284
 30
0.0
 10
-7.18227
 20
11.92284
 30
0.0
  0
SPLINE
  5
80
330
1F
100
AcDbEntity
  8
Warstwa 1
370
    13
100
AcDbSpline
210
0.0
220
0.0
230
1.0
 70
    11
 71
     3
 72
    16
 73
    12
 74
     0
 42
0.0000000001
 43
0.0000000001
 40
0.0
 40
0.0
 40
0.0
 40
0.0
 40
0.25
 40
0.25
 40
0.25
 40
0.25
 40
0.5
 40
0.5
 40
0.5
 40
0.5
 40
1.0
 40
1.0
 40
1.0
 40
1.0
 10
0.36354
 20
11.92284
 30
0.0
 10
0.36354
 20
11.92284
 30
0.0
 10
0.69374
 20
11.97364
 30
0.0
 10
0.69374
 20
11.97364
 30
0.0
 10
0.69374
 20
11.97364
 30
0.0
 10
0.69374
 20
11.97364
 30
0.0
 10
0.69374
 20
11.87204
 30
0.0
 10
0.69374
 20
11.87204
 30
0.0
 10
0.69374
 20
11.87204
 30
0.0
 10
0.69374
 20
11.87204
 30
0.0
 10
0.36354
 20
11.92284
 30
0.0
 10
0.36354
 20
11.92284
 30
0.0
  0
SPLINE
  5
81
330
1F
100
AcDbEntity
  8
Warstwa 1
370
    13
100
AcDbSpline
210
0.0
220
0.0
230
1.0
 70
    11
 71
     3
 72
    16
 73
    12
 74
     0
 42
0.0000000001
 43
0.0000000001
 40
0.0
 40
0.0
 40
0.0
 40
0.0
 40
0.25
 40
0.25
 40
0.25
 40
0.25
 40
0.5
 40
0.5
 40
0.5
 40
0.5
 40
1.0
 40
1.0
 40
1.0
 40
1.0
 10
0.04273
 20
11.92284
 30
0.0
 10
0.04273
 20
11.92284
 30
0.0
 10
-0.28747
 20
11.87204
 30
0.0
 10
-0.28747
 20
11.87204
 30
0.0
 10
-0.28747
 20
11.87204
 30
0.0
 10
-0.28747
 20
11.87204
 30
0.0
 10
-0.28747
 20
11.97364
 30
0.0
 10
-0.28747
 20
11.97364
 30
0.0
 10
-0.28747
 20
11.97364
 30
0.0
 10
-0.28747
 20
11.97364
 30
0.0
 10
0.04273
 20
11.92284
 30
0.0
 10
0.04273
 20
11.92284
 30
0.0
  0
SPLINE
  5
82
330
1F
100
AcDbEntity
  8
Warstwa 1
370
    13
100
AcDbSpline
210
0.0
220
0.0
230
1.0
 70
    11
 71
     3
 72
    16
 73
    12
 74
     0
 42
0.0000000001
 43
0.0000000001
 40
0.0
 40
0.0
 40
0.0
 40
0.0
 40
0.25
 40
0.25
 40
0.25
 40
0.25
 40
0.5
 40
0.5
 40
0.5
 40
0.5
 40
1.0
 40
1.0
 40
1.0
 40
1.0
 10
-6.46976
 20
11.46623
 30
0.0
 10
-6.46976
 20
11.46623
 30
0.0
 10
-6.13956
 20
11.51703
 30
0.0
 10
-6.13956
 20
11.51703
 30
0.0
 10
-6.13956
 20
11.51703
 30
0.0
 10
-6.13956
 20
11.51703
 30
0.0
 10
-6.13956
 20
11.41543
 30
0.0
 10
-6.13956
 20
11.41543
 30
0.0
 10
-6.13956
 20
11.41543
 30
0.0
 10
-6.13956
 20
11.41543
 30
0.0
 10
-6.46976
 20
11.46623
 30
0.0
 10
-6.46976
 20
11.46623
 30
0.0
  0
SPLINE
  5
83
330
1F
100
AcDbEntity
  8
Warstwa 1
370
    13
100
AcDbSpline
210
0.0
220
0.0
230
1.0
 70
    11
 71
     3
 72
    16
 73
    12
 74
     0
 42
0.0000000001
 43
0.0000000001
 40
0.0
 40
0.0
 40
0.0
 40
0.0
 40
0.25
 40
0.25
 40
0.25
 40
0.25
 40
0.5
 40
0.5
 40
0.5
 40
0.5
 40
1.0
 40
1.0
 40
1.0
 40
1.0
 10
-7.43221
 20
11.92283
 30
0.0
 10
-7.43221
 20
11.92283
 30
0.0
 10
-7.76241
 20
11.87203
 30
0.0
 10
-7.76241
 20
11.87203
 30
0.0
 10
-7.76241
 20
11.87203
 30
0.0
 10
-7.76241
 20
11.87203
 30
0.0
 10
-7.76241
 20
11.97363
 30
0.0
 10
-7.76241
 20
11.97363
 30
0.0
 10
-7.76241
 20
11.97363
 30
0.0
 10
-7.76241
 20
11.97363
 30
0.0
 10
-7.43221
 20
11.92283
 30
0.0
 10
-7.43221
 20
11.92283
 30
0.0
  0
SPLINE
  5
84
330
1F
100
AcDbEntity
  8
Warstwa 1
370
    13
100
AcDbSpline
210
0.0
220
0.0
230
1.0
 70
    11
 71
     3
 72
    16
 73
    12
 74
     0
 42
0.0000000001
 43
0.0000000001
 40
0.0
 40
0.0
 40
0.0
 40
0.0
 40
0.25
 40
0.25
 40
0.25
 40
0.25
 40
0.5
 40
0.5
 40
0.5
 40
0.5
 40
1.0
 40
1.0
 40
1.0
 40
1.0
 10
-7.18226
 20
11.92283
 30
0.0
 10
-7.18226
 20
11.92283
 30
0.0
 10
-6.85206
 20
11.97363
 30
0.0
 10
-6.85206
 20
11.97363
 30
0.0
 10
-6.85206
 20
11.97363
 30
0.0
 10
-6.85206
 20
11.97363
 30
0.0
 10
-6.85206
 20
11.87203
 30
0.0
 10
-6.85206
 20
11.87203
 30
0.0
 10
-6.85206
 20
11.87203
 30
0.0
 10
-6.85206
 20
11.87203
 30
0.0
 10
-7.18226
 20
11.92283
 30
0.0
 10
-7.18226
 20
11.92283
 30
0.0
  0
SPLINE
  5
85
330
1F
100
AcDbEntity
  8
Warstwa 1
370
    13
100
AcDbSpline
210
0.0
220
0.0
230
1.0
 70
    11
 71
     3
 72
    16
 73
    12
 74
     0
 42
0.0000000001
 43
0.0000000001
 40
0.0
 40
0.0
 40
0.0
 40
0.0
 40
0.25
 40
0.25
 40
0.25
 40
0.25
 40
0.5
 40
0.5
 40
0.5
 40
0.5
 40
1.0
 40
1.0
 40
1.0
 40
1.0
 10
8.88245
 20
4.85679
 30
0.0
 10
8.88245
 20
4.85679
 30
0.0
 10
9.21265
 20
4.90759
 30
0.0
 10
9.21265
 20
4.90759
 30
0.0
 10
9.21265
 20
4.90759
 30
0.0
 10
9.21265
 20
4.90759
 30
0.0
 10
9.21265
 20
4.80599
 30
0.0
 10
9.21265
 20
4.80599
 30
0.0
 10
9.21265
 20
4.80599
 30
0.0
 10
9.21265
 20
4.80599
 30
0.0
 10
8.88245
 20
4.85679
 30
0.0
 10
8.88245
 20
4.85679
 30
0.0
  0
SPLINE
  5
86
330
1F
100
AcDbEntity
  8
Warstwa 1
370
    13
100
AcDbSpline
210
0.0
220
0.0
230
1.0
 70
    11
 71
     3
 72
    16
 73
    12
 74
     0
 42
0.0000000001
 43
0.0000000001
 40
0.0
 40
0.0
 40
0.0
 40
0.0
 40
0.25
 40
0.25
 40
0.25
 40
0.25
 40
0.5
 40
0.5
 40
0.5
 40
0.5
 40
1.0
 40
1.0
 40
1.0
 40
1.0
 10
8.78244
 20
4.85679
 30
0.0
 10
8.78244
 20
4.85679
 30
0.0
 10
8.45224
 20
4.80599
 30
0.0
 10
8.45224
 20
4.80599
 30
0.0
 10
8.45224
 20
4.80599
 30
0.0
 10
8.45224
 20
4.80599
 30
0.0
 10
8.45224
 20
4.90759
 30
0.0
 10
8.45224
 20
4.90759
 30
0.0
 10
8.45224
 20
4.90759
 30
0.0
 10
8.45224
 20
4.90759
 30
0.0
 10
8.78244
 20
4.85679
 30
0.0
 10
8.78244
 20
4.85679
 30
0.0
  0
SPLINE
  5
87
330
1F
100
AcDbEntity
  8
Warstwa 1
370
    13
100
AcDbSpline
210
0.0
220
0.0
230
1.0
 70
    11
 71
     3
 72
    16
 73
    12
 74
     0
 42
0.0000000001
 43
0.0000000001
 40
0.0
 40
0.0
 40
0.0
 40
0.0
 40
0.25
 40
0.25
 40
0.25
 40
0.25
 40
0.5
 40
0.5
 40
0.5
 40
0.5
 40
1.0
 40
1.0
 40
1.0
 40
1.0
 10
-7.6551
 20
-11.72914
 30
0.0
 10
-7.6551
 20
-11.72914
 30
0.0
 10
-7.7059
 20
-11.39894
 30
0.0
 10
-7.7059
 20
-11.39894
 30
0.0
 10
-7.7059
 20
-11.39894
 30
0.0
 10
-7.7059
 20
-11.39894
 30
0.0
 10
-7.6043
 20
-11.39894
 30
0.0
 10
-7.6043
 20
-11.39894
 30
0.0
 10
-7.6043
 20
-11.39894
 30
0.0
 10
-7.6043
 20
-11.39894
 30
0.0
 10
-7.6551
 20
-11.72914
 30
0.0
 10
-7.6551
 20
-11.72914
 30
0.0
  0
SPLINE
  5
88
330
1F
100
AcDbEntity
  8
Warstwa 1
370
    13
100
AcDbSpline
210
0.0
220
0.0
230
1.0
 70
    11
 71
     3
 72
    16
 73
    12
 74
     0
 42
0.0000000001
 43
0.0000000001
 40
0.0
 40
0.0
 40
0.0
 40
0.0
 40
0.25
 40
0.25
 40
0.25
 40
0.25
 40
0.5
 40
0.5
 40
0.5
 40
0.5
 40
1.0
 40
1.0
 40
1.0
 40
1.0
 10
-7.6551
 20
-9.24665
 30
0.0
 10
-7.6551
 20
-9.24665
 30
0.0
 10
-7.6043
 20
-9.57681
 30
0.0
 10
-7.6043
 20
-9.57681
 30
0.0
 10
-7.6043
 20
-9.57681
 30
0.0
 10
-7.6043
 20
-9.57681
 30
0.0
 10
-7.7059
 20
-9.57681
 30
0.0
 10
-7.7059
 20
-9.57681
 30
0.0
 10
-7.7059
 20
-9.57681
 30
0.0
 10
-7.7059
 20
-9.57681
 30
0.0
 10
-7.6551
 20
-9.24665
 30
0.0
 10
-7.6551
 20
-9.24665
 30
0.0
  0
SPLINE
  5
89
330
1F
100
AcDbEntity
  8
Warstwa 1
370
    13
100
AcDbSpline
210
0.0
220
0.0
230
1.0
 70
    11
 71
     3
 72
    16
 73
    12
 74
     0
 42
0.0000000001
 43
0.0000000001
 40
0.0
 40
0.0
 40
0.0
 40
0.0
 40
0.25
 40
0.25
 40
0.25
 40
0.25
 40
0.5
 40
0.5
 40
0.5
 40
0.5
 40
1.0
 40
1.0
 40
1.0
 40
1.0
 10
-8.11231
 20
-11.87914
 30
0.0
 10
-8.11231
 20
-11.87914
 30
0.0
 10
-8.16311
 20
-11.54894
 30
0.0
 10
-8.16311
 20
-11.54894
 30
0.0
 10
-8.16311
 20
-11.54894
 30
0.0
 10
-8.16311
 20
-11.54894
 30
0.0
 10
-8.06151
 20
-11.54894
 30
0.0
 10
-8.06151
 20
-11.54894
 30
0.0
 10
-8.06151
 20
-11.54894
 30
0.0
 10
-8.06151
 20
-11.54894
 30
0.0
 10
-8.11231
 20
-11.87914
 30
0.0
 10
-8.11231
 20
-11.87914
 30
0.0
  0
SPLINE
  5
8A
330
1F
100
AcDbEntity
  8
Warstwa 1
370
    13
100
AcDbSpline
210
0.0
220
0.0
230
1.0
 70
    11
 71
     3
 72
    16
 73
    12
 74
     0
 42
0.0000000001
 43
0.0000000001
 40
0.0
 40
0.0
 40
0.0
 40
0.0
 40
0.25
 40
0.25
 40
0.25
 40
0.25
 40
0.5
 40
0.5
 40
0.5
 40
0.5
 40
1.0
 40
1.0
 40
1.0
 40
1.0
 10
-8.11231
 20
-9.24665
 30
0.0
 10
-8.11231
 20
-9.24665
 30
0.0
 10
-8.06151
 20
-9.57681
 30
0.0
 10
-8.06151
 20
-9.57681
 30
0.0
 10
-8.06151
 20
-9.57681
 30
0.0
 10
-8.06151
 20
-9.57681
 30
0.0
 10
-8.16311
 20
-9.57681
 30
0.0
 10
-8.16311
 20
-9.57681
 30
0.0
 10
-8.16311
 20
-9.57681
 30
0.0
 10
-8.16311
 20
-9.57681
 30
0.0
 10
-8.11231
 20
-9.24665
 30
0.0
 10
-8.11231
 20
-9.24665
 30
0.0
  0
SPLINE
  5
8B
330
1F
100
AcDbEntity
  8
Warstwa 1
370
    13
100
AcDbSpline
210
0.0
220
0.0
230
1.0
 70
    11
 71
     3
 72
    16
 73
    12
 74
     0
 42
0.0000000001
 43
0.0000000001
 40
0.0
 40
0.0
 40
0.0
 40
0.0
 40
0.25
 40
0.25
 40
0.25
 40
0.25
 40
0.5
 40
0.5
 40
0.5
 40
0.5
 40
1.0
 40
1.0
 40
1.0
 40
1.0
 10
-7.58249
 20
3.32066
 30
0.0
 10
-7.58249
 20
3.32066
 30
0.0
 10
-7.53169
 20
2.99046
 30
0.0
 10
-7.53169
 20
2.99046
 30
0.0
 10
-7.53169
 20
2.99046
 30
0.0
 10
-7.53169
 20
2.99046
 30
0.0
 10
-7.63329
 20
2.99046
 30
0.0
 10
-7.63329
 20
2.99046
 30
0.0
 10
-7.63329
 20
2.99046
 30
0.0
 10
-7.63329
 20
2.99046
 30
0.0
 10
-7.58249
 20
3.32066
 30
0.0
 10
-7.58249
 20
3.32066
 30
0.0
  0
SPLINE
  5
8C
330
1F
100
AcDbEntity
  8
Warstwa 1
370
    13
100
AcDbSpline
210
0.0
220
0.0
230
1.0
 70
    11
 71
     3
 72
    16
 73
    12
 74
     0
 42
0.0000000001
 43
0.0000000001
 40
0.0
 40
0.0
 40
0.0
 40
0.0
 40
0.25
 40
0.25
 40
0.25
 40
0.25
 40
0.5
 40
0.5
 40
0.5
 40
0.5
 40
1.0
 40
1.0
 40
1.0
 40
1.0
 10
-7.58249
 20
3.72808
 30
0.0
 10
-7.58249
 20
3.72808
 30
0.0
 10
-7.63329
 20
4.05828
 30
0.0
 10
-7.63329
 20
4.05828
 30
0.0
 10
-7.63329
 20
4.05828
 30
0.0
 10
-7.63329
 20
4.05828
 30
0.0
 10
-7.53169
 20
4.05828
 30
0.0
 10
-7.53169
 20
4.05828
 30
0.0
 10
-7.53169
 20
4.05828
 30
0.0
 10
-7.53169
 20
4.05828
 30
0.0
 10
-7.58249
 20
3.72808
 30
0.0
 10
-7.58249
 20
3.72808
 30
0.0
  0
SPLINE
  5
8D
330
1F
100
AcDbEntity
  8
Warstwa 1
370
    13
100
AcDbSpline
210
0.0
220
0.0
230
1.0
 70
    11
 71
     3
 72
    16
 73
    12
 74
     0
 42
0.0000000001
 43
0.0000000001
 40
0.0
 40
0.0
 40
0.0
 40
0.0
 40
0.25
 40
0.25
 40
0.25
 40
0.25
 40
0.5
 40
0.5
 40
0.5
 40
0.5
 40
1.0
 40
1.0
 40
1.0
 40
1.0
 10
1.48968
 20
5.88751
 30
0.0
 10
1.48968
 20
5.88751
 30
0.0
 10
1.43888
 20
6.21771
 30
0.0
 10
1.43888
 20
6.21771
 30
0.0
 10
1.43888
 20
6.21771
 30
0.0
 10
1.43888
 20
6.21771
 30
0.0
 10
1.54048
 20
6.21771
 30
0.0
 10
1.54048
 20
6.21771
 30
0.0
 10
1.54048
 20
6.21771
 30
0.0
 10
1.54048
 20
6.21771
 30
0.0
 10
1.48968
 20
5.88751
 30
0.0
 10
1.48968
 20
5.88751
 30
0.0
  0
SPLINE
  5
8E
330
1F
100
AcDbEntity
  8
Warstwa 1
370
    13
100
AcDbSpline
210
0.0
220
0.0
230
1.0
 70
    11
 71
     3
 72
    16
 73
    12
 74
     0
 42
0.0000000001
 43
0.0000000001
 40
0.0
 40
0.0
 40
0.0
 40
0.0
 40
0.25
 40
0.25
 40
0.25
 40
0.25
 40
0.5
 40
0.5
 40
0.5
 40
0.5
 40
1.0
 40
1.0
 40
1.0
 40
1.0
 10
1.48968
 20
7.7875
 30
0.0
 10
1.48968
 20
7.7875
 30
0.0
 10
1.54048
 20
7.4573
 30
0.0
 10
1.54048
 20
7.4573
 30
0.0
 10
1.54048
 20
7.4573
 30
0.0
 10
1.54048
 20
7.4573
 30
0.0
 10
1.43888
 20
7.4573
 30
0.0
 10
1.43888
 20
7.4573
 30
0.0
 10
1.43888
 20
7.4573
 30
0.0
 10
1.43888
 20
7.4573
 30
0.0
 10
1.48968
 20
7.7875
 30
0.0
 10
1.48968
 20
7.7875
 30
0.0
  0
SPLINE
  5
8F
330
1F
100
AcDbEntity
  8
Warstwa 1
370
    13
100
AcDbSpline
210
0.0
220
0.0
230
1.0
 70
    11
 71
     3
 72
    16
 73
    12
 74
     0
 42
0.0000000001
 43
0.0000000001
 40
0.0
 40
0.0
 40
0.0
 40
0.0
 40
0.25
 40
0.25
 40
0.25
 40
0.25
 40
0.5
 40
0.5
 40
0.5
 40
0.5
 40
1.0
 40
1.0
 40
1.0
 40
1.0
 10
-8.24342
 20
-4.76933
 30
0.0
 10
-8.24342
 20
-4.76933
 30
0.0
 10
-8.29422
 20
-4.43916
 30
0.0
 10
-8.29422
 20
-4.43916
 30
0.0
 10
-8.29422
 20
-4.43916
 30
0.0
 10
-8.29422
 20
-4.43916
 30
0.0
 10
-8.19262
 20
-4.43916
 30
0.0
 10
-8.19262
 20
-4.43916
 30
0.0
 10
-8.19262
 20
-4.43916
 30
0.0
 10
-8.19262
 20
-4.43916
 30
0.0
 10
-8.24342
 20
-4.76933
 30
0.0
 10
-8.24342
 20
-4.76933
 30
0.0
  0
SPLINE
  5
90
330
1F
100
AcDbEntity
  8
Warstwa 1
370
    13
100
AcDbSpline
210
0.0
220
0.0
230
1.0
 70
    11
 71
     3
 72
    16
 73
    12
 74
     0
 42
0.0000000001
 43
0.0000000001
 40
0.0
 40
0.0
 40
0.0
 40
0.0
 40
0.25
 40
0.25
 40
0.25
 40
0.25
 40
0.5
 40
0.5
 40
0.5
 40
0.5
 40
1.0
 40
1.0
 40
1.0
 40
1.0
 10
-8.24342
 20
3.72809
 30
0.0
 10
-8.24342
 20
3.72809
 30
0.0
 10
-8.19262
 20
3.39789
 30
0.0
 10
-8.19262
 20
3.39789
 30
0.0
 10
-8.19262
 20
3.39789
 30
0.0
 10
-8.19262
 20
3.39789
 30
0.0
 10
-8.29422
 20
3.39789
 30
0.0
 10
-8.29422
 20
3.39789
 30
0.0
 10
-8.29422
 20
3.39789
 30
0.0
 10
-8.29422
 20
3.39789
 30
0.0
 10
-8.24342
 20
3.72809
 30
0.0
 10
-8.24342
 20
3.72809
 30
0.0
  0
SPLINE
  5
91
330
1F
100
AcDbEntity
  8
Warstwa 1
370
    13
100
AcDbSpline
210
0.0
220
0.0
230
1.0
 70
    11
 71
     3
 72
    16
 73
    12
 74
     0
 42
0.0000000001
 43
0.0000000001
 40
0.0
 40
0.0
 40
0.0
 40
0.0
 40
0.25
 40
0.25
 40
0.25
 40
0.25
 40
0.5
 40
0.5
 40
0.5
 40
0.5
 40
1.0
 40
1.0
 40
1.0
 40
1.0
 10
-8.55506
 20
5.21999
 30
0.0
 10
-8.55506
 20
5.21999
 30
0.0
 10
-8.60586
 20
5.55019
 30
0.0
 10
-8.60586
 20
5.55019
 30
0.0
 10
-8.60586
 20
5.55019
 30
0.0
 10
-8.60586
 20
5.55019
 30
0.0
 10
-8.50426
 20
5.55019
 30
0.0
 10
-8.50426
 20
5.55019
 30
0.0
 10
-8.50426
 20
5.55019
 30
0.0
 10
-8.50426
 20
5.55019
 30
0.0
 10
-8.55506
 20
5.21999
 30
0.0
 10
-8.55506
 20
5.21999
 30
0.0
  0
SPLINE
  5
92
330
1F
100
AcDbEntity
  8
Warstwa 1
370
    13
100
AcDbSpline
210
0.0
220
0.0
230
1.0
 70
    11
 71
     3
 72
    16
 73
    12
 74
     0
 42
0.0000000001
 43
0.0000000001
 40
0.0
 40
0.0
 40
0.0
 40
0.0
 40
0.25
 40
0.25
 40
0.25
 40
0.25
 40
0.5
 40
0.5
 40
0.5
 40
0.5
 40
1.0
 40
1.0
 40
1.0
 40
1.0
 10
-8.55506
 20
10.87248
 30
0.0
 10
-8.55506
 20
10.87248
 30
0.0
 10
-8.50426
 20
10.54228
 30
0.0
 10
-8.50426
 20
10.54228
 30
0.0
 10
-8.50426
 20
10.54228
 30
0.0
 10
-8.50426
 20
10.54228
 30
0.0
 10
-8.60586
 20
10.54228
 30
0.0
 10
-8.60586
 20
10.54228
 30
0.0
 10
-8.60586
 20
10.54228
 30
0.0
 10
-8.60586
 20
10.54228
 30
0.0
 10
-8.55506
 20
10.87248
 30
0.0
 10
-8.55506
 20
10.87248
 30
0.0
  0
SPLINE
  5
93
330
1F
100
AcDbEntity
  8
Warstwa 1
370
    13
100
AcDbSpline
210
0.0
220
0.0
230
1.0
 70
    11
 71
     3
 72
    16
 73
    12
 74
     0
 42
0.0000000001
 43
0.0000000001
 40
0.0
 40
0.0
 40
0.0
 40
0.0
 40
0.25
 40
0.25
 40
0.25
 40
0.25
 40
0.5
 40
0.5
 40
0.5
 40
0.5
 40
1.0
 40
1.0
 40
1.0
 40
1.0
 10
0.91358
 20
-4.75434
 30
0.0
 10
0.91358
 20
-4.75434
 30
0.0
 10
0.86278
 20
-4.42414
 30
0.0
 10
0.86278
 20
-4.42414
 30
0.0
 10
0.86278
 20
-4.42414
 30
0.0
 10
0.86278
 20
-4.42414
 30
0.0
 10
0.96434
 20
-4.42414
 30
0.0
 10
0.96434
 20
-4.42414
 30
0.0
 10
0.96434
 20
-4.42414
 30
0.0
 10
0.96434
 20
-4.42414
 30
0.0
 10
0.91358
 20
-4.75434
 30
0.0
 10
0.91358
 20
-4.75434
 30
0.0
  0
SPLINE
  5
94
330
1F
100
AcDbEntity
  8
Warstwa 1
370
    13
100
AcDbSpline
210
0.0
220
0.0
230
1.0
 70
    11
 71
     3
 72
    16
 73
    12
 74
     0
 42
0.0000000001
 43
0.0000000001
 40
0.0
 40
0.0
 40
0.0
 40
0.0
 40
0.25
 40
0.25
 40
0.25
 40
0.25
 40
0.5
 40
0.5
 40
0.5
 40
0.5
 40
1.0
 40
1.0
 40
1.0
 40
1.0
 10
0.91358
 20
2.69219
 30
0.0
 10
0.91358
 20
2.69219
 30
0.0
 10
0.96434
 20
2.36199
 30
0.0
 10
0.96434
 20
2.36199
 30
0.0
 10
0.96434
 20
2.36199
 30
0.0
 10
0.96434
 20
2.36199
 30
0.0
 10
0.86278
 20
2.36199
 30
0.0
 10
0.86278
 20
2.36199
 30
0.0
 10
0.86278
 20
2.36199
 30
0.0
 10
0.86278
 20
2.36199
 30
0.0
 10
0.91358
 20
2.69219
 30
0.0
 10
0.91358
 20
2.69219
 30
0.0
  0
SPLINE
  5
95
330
1F
100
AcDbEntity
  8
Warstwa 1
370
    13
100
AcDbSpline
210
0.0
220
0.0
230
1.0
 70
    11
 71
     3
 72
    16
 73
    12
 74
     0
 42
0.0000000001
 43
0.0000000001
 40
0.0
 40
0.0
 40
0.0
 40
0.0
 40
0.25
 40
0.25
 40
0.25
 40
0.25
 40
0.5
 40
0.5
 40
0.5
 40
0.5
 40
1.0
 40
1.0
 40
1.0
 40
1.0
 10
-7.56909
 20
9.6425
 30
0.0
 10
-7.56909
 20
9.6425
 30
0.0
 10
-7.51829
 20
9.3123
 30
0.0
 10
-7.51829
 20
9.3123
 30
0.0
 10
-7.51829
 20
9.3123
 30
0.0
 10
-7.51829
 20
9.3123
 30
0.0
 10
-7.61989
 20
9.3123
 30
0.0
 10
-7.61989
 20
9.3123
 30
0.0
 10
-7.61989
 20
9.3123
 30
0.0
 10
-7.61989
 20
9.3123
 30
0.0
 10
-7.56909
 20
9.6425
 30
0.0
 10
-7.56909
 20
9.6425
 30
0.0
  0
SPLINE
  5
96
330
1F
100
AcDbEntity
  8
Warstwa 1
370
    13
100
AcDbSpline
210
0.0
220
0.0
230
1.0
 70
    11
 71
     3
 72
    16
 73
    12
 74
     0
 42
0.0000000001
 43
0.0000000001
 40
0.0
 40
0.0
 40
0.0
 40
0.0
 40
0.25
 40
0.25
 40
0.25
 40
0.25
 40
0.5
 40
0.5
 40
0.5
 40
0.5
 40
1.0
 40
1.0
 40
1.0
 40
1.0
 10
-7.56909
 20
6.83749
 30
0.0
 10
-7.56909
 20
6.83749
 30
0.0
 10
-7.61989
 20
7.16769
 30
0.0
 10
-7.61989
 20
7.16769
 30
0.0
 10
-7.61989
 20
7.16769
 30
0.0
 10
-7.61989
 20
7.16769
 30
0.0
 10
-7.51829
 20
7.16769
 30
0.0
 10
-7.51829
 20
7.16769
 30
0.0
 10
-7.51829
 20
7.16769
 30
0.0
 10
-7.51829
 20
7.16769
 30
0.0
 10
-7.56909
 20
6.83749
 30
0.0
 10
-7.56909
 20
6.83749
 30
0.0
  0
SPLINE
  5
97
330
1F
100
AcDbEntity
  8
Warstwa 1
370
    13
100
AcDbSpline
210
0.0
220
0.0
230
1.0
 70
    11
 71
     3
 72
    16
 73
    12
 74
     0
 42
0.0000000001
 43
0.0000000001
 40
0.0
 40
0.0
 40
0.0
 40
0.0
 40
0.25
 40
0.25
 40
0.25
 40
0.25
 40
0.5
 40
0.5
 40
0.5
 40
0.5
 40
1.0
 40
1.0
 40
1.0
 40
1.0
 10
1.05354
 20
7.63748
 30
0.0
 10
1.05354
 20
7.63748
 30
0.0
 10
1.10437
 20
7.30728
 30
0.0
 10
1.10437
 20
7.30728
 30
0.0
 10
1.10437
 20
7.30728
 30
0.0
 10
1.10437
 20
7.30728
 30
0.0
 10
1.00277
 20
7.30728
 30
0.0
 10
1.00277
 20
7.30728
 30
0.0
 10
1.00277
 20
7.30728
 30
0.0
 10
1.00277
 20
7.30728
 30
0.0
 10
1.05354
 20
7.63748
 30
0.0
 10
1.05354
 20
7.63748
 30
0.0
  0
SPLINE
  5
98
330
1F
100
AcDbEntity
  8
Warstwa 1
370
    13
100
AcDbSpline
210
0.0
220
0.0
230
1.0
 70
    11
 71
     3
 72
    16
 73
    12
 74
     0
 42
0.0000000001
 43
0.0000000001
 40
0.0
 40
0.0
 40
0.0
 40
0.0
 40
0.25
 40
0.25
 40
0.25
 40
0.25
 40
0.5
 40
0.5
 40
0.5
 40
0.5
 40
1.0
 40
1.0
 40
1.0
 40
1.0
 10
1.05354
 20
6.03749
 30
0.0
 10
1.05354
 20
6.03749
 30
0.0
 10
1.00277
 20
6.36769
 30
0.0
 10
1.00277
 20
6.36769
 30
0.0
 10
1.00277
 20
6.36769
 30
0.0
 10
1.00277
 20
6.36769
 30
0.0
 10
1.10437
 20
6.36769
 30
0.0
 10
1.10437
 20
6.36769
 30
0.0
 10
1.10437
 20
6.36769
 30
0.0
 10
1.10437
 20
6.36769
 30
0.0
 10
1.05354
 20
6.03749
 30
0.0
 10
1.05354
 20
6.03749
 30
0.0
  0
SPLINE
  5
99
330
1F
100
AcDbEntity
  8
Warstwa 1
370
    13
100
AcDbSpline
210
0.0
220
0.0
230
1.0
 70
    11
 71
     3
 72
    16
 73
    12
 74
     0
 42
0.0000000001
 43
0.0000000001
 40
0.0
 40
0.0
 40
0.0
 40
0.0
 40
0.25
 40
0.25
 40
0.25
 40
0.25
 40
0.5
 40
0.5
 40
0.5
 40
0.5
 40
1.0
 40
1.0
 40
1.0
 40
1.0
 10
3.81208
 20
-4.76935
 30
0.0
 10
3.81208
 20
-4.76935
 30
0.0
 10
3.86287
 20
-5.09955
 30
0.0
 10
3.86287
 20
-5.09955
 30
0.0
 10
3.86287
 20
-5.09955
 30
0.0
 10
3.86287
 20
-5.09955
 30
0.0
 10
3.76128
 20
-5.09955
 30
0.0
 10
3.76128
 20
-5.09955
 30
0.0
 10
3.76128
 20
-5.09955
 30
0.0
 10
3.76128
 20
-5.09955
 30
0.0
 10
3.81208
 20
-4.76935
 30
0.0
 10
3.81208
 20
-4.76935
 30
0.0
  0
SPLINE
  5
9A
330
1F
100
AcDbEntity
  8
Warstwa 1
370
    13
100
AcDbSpline
210
0.0
220
0.0
230
1.0
 70
    11
 71
     3
 72
    16
 73
    12
 74
     0
 42
0.0000000001
 43
0.0000000001
 40
0.0
 40
0.0
 40
0.0
 40
0.0
 40
0.25
 40
0.25
 40
0.25
 40
0.25
 40
0.5
 40
0.5
 40
0.5
 40
0.5
 40
1.0
 40
1.0
 40
1.0
 40
1.0
 10
3.81208
 20
-7.11934
 30
0.0
 10
3.81208
 20
-7.11934
 30
0.0
 10
3.76128
 20
-6.78914
 30
0.0
 10
3.76128
 20
-6.78914
 30
0.0
 10
3.76128
 20
-6.78914
 30
0.0
 10
3.76128
 20
-6.78914
 30
0.0
 10
3.86287
 20
-6.78914
 30
0.0
 10
3.86287
 20
-6.78914
 30
0.0
 10
3.86287
 20
-6.78914
 30
0.0
 10
3.86287
 20
-6.78914
 30
0.0
 10
3.81208
 20
-7.11934
 30
0.0
 10
3.81208
 20
-7.11934
 30
0.0
  0
SPLINE
  5
9B
330
1F
100
AcDbEntity
  8
Warstwa 1
370
    13
100
AcDbSpline
210
0.0
220
0.0
230
1.0
 70
    11
 71
     3
 72
    16
 73
    12
 74
     0
 42
0.0000000001
 43
0.0000000001
 40
0.0
 40
0.0
 40
0.0
 40
0.0
 40
0.25
 40
0.25
 40
0.25
 40
0.25
 40
0.5
 40
0.5
 40
0.5
 40
0.5
 40
1.0
 40
1.0
 40
1.0
 40
1.0
 10
-7.56909
 20
10.8725
 30
0.0
 10
-7.56909
 20
10.8725
 30
0.0
 10
-7.51829
 20
10.5423
 30
0.0
 10
-7.51829
 20
10.5423
 30
0.0
 10
-7.51829
 20
10.5423
 30
0.0
 10
-7.51829
 20
10.5423
 30
0.0
 10
-7.61989
 20
10.5423
 30
0.0
 10
-7.61989
 20
10.5423
 30
0.0
 10
-7.61989
 20
10.5423
 30
0.0
 10
-7.61989
 20
10.5423
 30
0.0
 10
-7.56909
 20
10.8725
 30
0.0
 10
-7.56909
 20
10.8725
 30
0.0
  0
SPLINE
  5
9C
330
1F
100
AcDbEntity
  8
Warstwa 1
370
    13
100
AcDbSpline
210
0.0
220
0.0
230
1.0
 70
    11
 71
     3
 72
    16
 73
    12
 74
     0
 42
0.0000000001
 43
0.0000000001
 40
0.0
 40
0.0
 40
0.0
 40
0.0
 40
0.25
 40
0.25
 40
0.25
 40
0.25
 40
0.5
 40
0.5
 40
0.5
 40
0.5
 40
1.0
 40
1.0
 40
1.0
 40
1.0
 10
-7.56909
 20
9.6425
 30
0.0
 10
-7.56909
 20
9.6425
 30
0.0
 10
-7.61989
 20
9.9727
 30
0.0
 10
-7.61989
 20
9.9727
 30
0.0
 10
-7.61989
 20
9.9727
 30
0.0
 10
-7.61989
 20
9.9727
 30
0.0
 10
-7.51829
 20
9.9727
 30
0.0
 10
-7.51829
 20
9.9727
 30
0.0
 10
-7.51829
 20
9.9727
 30
0.0
 10
-7.51829
 20
9.9727
 30
0.0
 10
-7.56909
 20
9.6425
 30
0.0
 10
-7.56909
 20
9.6425
 30
0.0
  0
SPLINE
  5
9D
330
1F
100
AcDbEntity
  8
Warstwa 1
370
    13
100
AcDbSpline
210
0.0
220
0.0
230
1.0
 70
    11
 71
     3
 72
    16
 73
    12
 74
     0
 42
0.0000000001
 43
0.0000000001
 40
0.0
 40
0.0
 40
0.0
 40
0.0
 40
0.25
 40
0.25
 40
0.25
 40
0.25
 40
0.5
 40
0.5
 40
0.5
 40
0.5
 40
1.0
 40
1.0
 40
1.0
 40
1.0
 10
-6.16976
 20
-12.61574
 30
0.0
 10
-6.16976
 20
-12.61574
 30
0.0
 10
-5.83956
 20
-12.56494
 30
0.0
 10
-5.83956
 20
-12.56494
 30
0.0
 10
-5.83956
 20
-12.56494
 30
0.0
 10
-5.83956
 20
-12.56494
 30
0.0
 10
-5.83956
 20
-12.66654
 30
0.0
 10
-5.83956
 20
-12.66654
 30
0.0
 10
-5.83956
 20
-12.66654
 30
0.0
 10
-5.83956
 20
-12.66654
 30
0.0
 10
-6.16976
 20
-12.61574
 30
0.0
 10
-6.16976
 20
-12.61574
 30
0.0
  0
SPLINE
  5
9E
330
1F
100
AcDbEntity
  8
Warstwa 1
370
    13
100
AcDbSpline
210
0.0
220
0.0
230
1.0
 70
    11
 71
     3
 72
    16
 73
    12
 74
     0
 42
0.0000000001
 43
0.0000000001
 40
0.0
 40
0.0
 40
0.0
 40
0.0
 40
0.25
 40
0.25
 40
0.25
 40
0.25
 40
0.5
 40
0.5
 40
0.5
 40
0.5
 40
1.0
 40
1.0
 40
1.0
 40
1.0
 10
-0.96975
 20
-12.61574
 30
0.0
 10
-0.96975
 20
-12.61574
 30
0.0
 10
-1.29995
 20
-12.66654
 30
0.0
 10
-1.29995
 20
-12.66654
 30
0.0
 10
-1.29995
 20
-12.66654
 30
0.0
 10
-1.29995
 20
-12.66654
 30
0.0
 10
-1.29995
 20
-12.56494
 30
0.0
 10
-1.29995
 20
-12.56494
 30
0.0
 10
-1.29995
 20
-12.56494
 30
0.0
 10
-1.29995
 20
-12.56494
 30
0.0
 10
-0.96975
 20
-12.61574
 30
0.0
 10
-0.96975
 20
-12.61574
 30
0.0
  0
SPLINE
  5
9F
330
1F
100
AcDbEntity
  8
Warstwa 1
370
    13
100
AcDbSpline
210
0.0
220
0.0
230
1.0
 70
    24
 71
     3
 72
     8
 73
     4
 74
     0
 42
0.0000000001
 43
0.0000000001
 40
0.0
 40
0.0
 40
0.0
 40
0.0
 40
1.0
 40
1.0
 40
1.0
 40
1.0
 10
0.04273
 20
10.80749
 30
0.0
 10
0.04273
 20
10.80749
 30
0.0
 10
0.04273
 20
12.02285
 30
0.0
 10
0.04273
 20
12.02285
 30
0.0
  0
SPLINE
  5
A0
330
1F
100
AcDbEntity
  8
Warstwa 1
370
    13
100
AcDbSpline
210
0.0
220
0.0
230
1.0
 70
    24
 71
     3
 72
     8
 73
     4
 74
     0
 42
0.0000000001
 43
0.0000000001
 40
0.0
 40
0.0
 40
0.0
 40
0.0
 40
1.0
 40
1.0
 40
1.0
 40
1.0
 10
-7.18227
 20
10.80749
 30
0.0
 10
-7.18227
 20
10.80749
 30
0.0
 10
-7.18227
 20
12.02285
 30
0.0
 10
-7.18227
 20
12.02285
 30
0.0
  0
SPLINE
  5
A1
330
1F
100
AcDbEntity
  8
Warstwa 1
370
    13
100
AcDbSpline
210
0.0
220
0.0
230
1.0
 70
    24
 71
     3
 72
     8
 73
     4
 74
     0
 42
0.0000000001
 43
0.0000000001
 40
0.0
 40
0.0
 40
0.0
 40
0.0
 40
1.0
 40
1.0
 40
1.0
 40
1.0
 10
0.04273
 20
11.92283
 30
0.0
 10
0.04273
 20
11.92283
 30
0.0
 10
-7.18227
 20
11.92283
 30
0.0
 10
-7.18227
 20
11.92283
 30
0.0
  0
SPLINE
  5
A2
330
1F
100
AcDbEntity
  8
Warstwa 1
370
    13
100
AcDbSpline
210
0.0
220
0.0
230
1.0
 70
    24
 71
     3
 72
     8
 73
     4
 74
     0
 42
0.0000000001
 43
0.0000000001
 40
0.0
 40
0.0
 40
0.0
 40
0.0
 40
1.0
 40
1.0
 40
1.0
 40
1.0
 10
0.36354
 20
10.67516
 30
0.0
 10
0.36354
 20
10.67516
 30
0.0
 10
0.36354
 20
12.02285
 30
0.0
 10
0.36354
 20
12.02285
 30
0.0
  0
SPLINE
  5
A3
330
1F
100
AcDbEntity
  8
Warstwa 1
370
    13
100
AcDbSpline
210
0.0
220
0.0
230
1.0
 70
    24
 71
     3
 72
     8
 73
     4
 74
     0
 42
0.0000000001
 43
0.0000000001
 40
0.0
 40
0.0
 40
0.0
 40
0.0
 40
1.0
 40
1.0
 40
1.0
 40
1.0
 10
0.04273
 20
10.80749
 30
0.0
 10
0.04273
 20
10.80749
 30
0.0
 10
0.04273
 20
12.02285
 30
0.0
 10
0.04273
 20
12.02285
 30
0.0
  0
SPLINE
  5
A4
330
1F
100
AcDbEntity
  8
Warstwa 1
370
    13
100
AcDbSpline
210
0.0
220
0.0
230
1.0
 70
    24
 71
     3
 72
     8
 73
     4
 74
     0
 42
0.0000000001
 43
0.0000000001
 40
0.0
 40
0.0
 40
0.0
 40
0.0
 40
1.0
 40
1.0
 40
1.0
 40
1.0
 10
0.36354
 20
11.92283
 30
0.0
 10
0.36354
 20
11.92283
 30
0.0
 10
1.37697
 20
11.92283
 30
0.0
 10
1.37697
 20
11.92283
 30
0.0
  0
SPLINE
  5
A5
330
1F
100
AcDbEntity
  8
Warstwa 1
370
    13
100
AcDbSpline
210
0.0
220
0.0
230
1.0
 70
    24
 71
     3
 72
     8
 73
     4
 74
     0
 42
0.0000000001
 43
0.0000000001
 40
0.0
 40
0.0
 40
0.0
 40
0.0
 40
1.0
 40
1.0
 40
1.0
 40
1.0
 10
0.36354
 20
11.92283
 30
0.0
 10
0.36354
 20
11.92283
 30
0.0
 10
0.04273
 20
11.92283
 30
0.0
 10
0.04273
 20
11.92283
 30
0.0
  0
SPLINE
  5
A6
330
1F
100
AcDbEntity
  8
Warstwa 1
370
    13
100
AcDbSpline
210
0.0
220
0.0
230
1.0
 70
    24
 71
     3
 72
     8
 73
     4
 74
     0
 42
0.0000000001
 43
0.0000000001
 40
0.0
 40
0.0
 40
0.0
 40
0.0
 40
1.0
 40
1.0
 40
1.0
 40
1.0
 10
0.04273
 20
11.92283
 30
0.0
 10
0.04273
 20
11.92283
 30
0.0
 10
-0.59227
 20
11.92283
 30
0.0
 10
-0.59227
 20
11.92283
 30
0.0
  0
SPLINE
  5
A7
330
1F
100
AcDbEntity
  8
Warstwa 1
370
    13
100
AcDbSpline
210
0.0
220
0.0
230
1.0
 70
    24
 71
     3
 72
     8
 73
     4
 74
     0
 42
0.0000000001
 43
0.0000000001
 40
0.0
 40
0.0
 40
0.0
 40
0.0
 40
1.0
 40
1.0
 40
1.0
 40
1.0
 10
-6.46976
 20
9.73999
 30
0.0
 10
-6.46976
 20
9.73999
 30
0.0
 10
-6.46976
 20
11.56622
 30
0.0
 10
-6.46976
 20
11.56622
 30
0.0
  0
SPLINE
  5
A8
330
1F
100
AcDbEntity
  8
Warstwa 1
370
    13
100
AcDbSpline
210
0.0
220
0.0
230
1.0
 70
    24
 71
     3
 72
     8
 73
     4
 74
     0
 42
0.0000000001
 43
0.0000000001
 40
0.0
 40
0.0
 40
0.0
 40
0.0
 40
1.0
 40
1.0
 40
1.0
 40
1.0
 10
-6.46976
 20
11.46624
 30
0.0
 10
-6.46976
 20
11.46624
 30
0.0
 10
-3.24332
 20
11.46624
 30
0.0
 10
-3.24332
 20
11.46624
 30
0.0
  0
SPLINE
  5
A9
330
1F
100
AcDbEntity
  8
Warstwa 1
370
    13
100
AcDbSpline
210
0.0
220
0.0
230
1.0
 70
    24
 71
     3
 72
     8
 73
     4
 74
     0
 42
0.0000000001
 43
0.0000000001
 40
0.0
 40
0.0
 40
0.0
 40
0.0
 40
1.0
 40
1.0
 40
1.0
 40
1.0
 10
-7.43221
 20
9.7425
 30
0.0
 10
-7.43221
 20
9.7425
 30
0.0
 10
-7.43221
 20
12.02285
 30
0.0
 10
-7.43221
 20
12.02285
 30
0.0
  0
SPLINE
  5
AA
330
1F
100
AcDbEntity
  8
Warstwa 1
370
    13
100
AcDbSpline
210
0.0
220
0.0
230
1.0
 70
    24
 71
     3
 72
     8
 73
     4
 74
     0
 42
0.0000000001
 43
0.0000000001
 40
0.0
 40
0.0
 40
0.0
 40
0.0
 40
1.0
 40
1.0
 40
1.0
 40
1.0
 10
-7.18226
 20
10.8075
 30
0.0
 10
-7.18226
 20
10.8075
 30
0.0
 10
-7.18226
 20
12.02285
 30
0.0
 10
-7.18226
 20
12.02285
 30
0.0
  0
SPLINE
  5
AB
330
1F
100
AcDbEntity
  8
Warstwa 1
370
    13
100
AcDbSpline
210
0.0
220
0.0
230
1.0
 70
    24
 71
     3
 72
     8
 73
     4
 74
     0
 42
0.0000000001
 43
0.0000000001
 40
0.0
 40
0.0
 40
0.0
 40
0.0
 40
1.0
 40
1.0
 40
1.0
 40
1.0
 10
-7.43221
 20
11.92284
 30
0.0
 10
-7.43221
 20
11.92284
 30
0.0
 10
-8.4015
 20
11.92284
 30
0.0
 10
-8.4015
 20
11.92284
 30
0.0
  0
SPLINE
  5
AC
330
1F
100
AcDbEntity
  8
Warstwa 1
370
    13
100
AcDbSpline
210
0.0
220
0.0
230
1.0
 70
    24
 71
     3
 72
     8
 73
     4
 74
     0
 42
0.0000000001
 43
0.0000000001
 40
0.0
 40
0.0
 40
0.0
 40
0.0
 40
1.0
 40
1.0
 40
1.0
 40
1.0
 10
-7.43221
 20
11.92284
 30
0.0
 10
-7.43221
 20
11.92284
 30
0.0
 10
-7.18226
 20
11.92284
 30
0.0
 10
-7.18226
 20
11.92284
 30
0.0
  0
SPLINE
  5
AD
330
1F
100
AcDbEntity
  8
Warstwa 1
370
    13
100
AcDbSpline
210
0.0
220
0.0
230
1.0
 70
    24
 71
     3
 72
     8
 73
     4
 74
     0
 42
0.0000000001
 43
0.0000000001
 40
0.0
 40
0.0
 40
0.0
 40
0.0
 40
1.0
 40
1.0
 40
1.0
 40
1.0
 10
-7.18226
 20
11.92284
 30
0.0
 10
-7.18226
 20
11.92284
 30
0.0
 10
-6.54726
 20
11.92284
 30
0.0
 10
-6.54726
 20
11.92284
 30
0.0
  0
SPLINE
  5
AE
330
1F
100
AcDbEntity
  8
Warstwa 1
370
    13
100
AcDbSpline
210
0.0
220
0.0
230
1.0
 70
    24
 71
     3
 72
     8
 73
     4
 74
     0
 42
0.0000000001
 43
0.0000000001
 40
0.0
 40
0.0
 40
0.0
 40
0.0
 40
1.0
 40
1.0
 40
1.0
 40
1.0
 10
8.78244
 20
3.06565
 30
0.0
 10
8.78244
 20
3.06565
 30
0.0
 10
8.78244
 20
4.95679
 30
0.0
 10
8.78244
 20
4.95679
 30
0.0
  0
SPLINE
  5
AF
330
1F
100
AcDbEntity
  8
Warstwa 1
370
    13
100
AcDbSpline
210
0.0
220
0.0
230
1.0
 70
    24
 71
     3
 72
     8
 73
     4
 74
     0
 42
0.0000000001
 43
0.0000000001
 40
0.0
 40
0.0
 40
0.0
 40
0.0
 40
1.0
 40
1.0
 40
1.0
 40
1.0
 10
8.88245
 20
4.85678
 30
0.0
 10
8.88245
 20
4.85678
 30
0.0
 10
9.51745
 20
4.85678
 30
0.0
 10
9.51745
 20
4.85678
 30
0.0
  0
SPLINE
  5
B0
330
1F
100
AcDbEntity
  8
Warstwa 1
370
    13
100
AcDbSpline
210
0.0
220
0.0
230
1.0
 70
    24
 71
     3
 72
     8
 73
     4
 74
     0
 42
0.0000000001
 43
0.0000000001
 40
0.0
 40
0.0
 40
0.0
 40
0.0
 40
1.0
 40
1.0
 40
1.0
 40
1.0
 10
8.88245
 20
4.85678
 30
0.0
 10
8.88245
 20
4.85678
 30
0.0
 10
8.78244
 20
4.85678
 30
0.0
 10
8.78244
 20
4.85678
 30
0.0
  0
SPLINE
  5
B1
330
1F
100
AcDbEntity
  8
Warstwa 1
370
    13
100
AcDbSpline
210
0.0
220
0.0
230
1.0
 70
    24
 71
     3
 72
     8
 73
     4
 74
     0
 42
0.0000000001
 43
0.0000000001
 40
0.0
 40
0.0
 40
0.0
 40
0.0
 40
1.0
 40
1.0
 40
1.0
 40
1.0
 10
8.78244
 20
4.85678
 30
0.0
 10
8.78244
 20
4.85678
 30
0.0
 10
6.42197
 20
4.85678
 30
0.0
 10
6.42197
 20
4.85678
 30
0.0
  0
SPLINE
  5
B2
330
1F
100
AcDbEntity
  8
Warstwa 1
370
    13
100
AcDbSpline
210
0.0
220
0.0
230
1.0
 70
    24
 71
     3
 72
     8
 73
     4
 74
     0
 42
0.0000000001
 43
0.0000000001
 40
0.0
 40
0.0
 40
0.0
 40
0.0
 40
1.0
 40
1.0
 40
1.0
 40
1.0
 10
-7.26727
 20
-11.72914
 30
0.0
 10
-7.26727
 20
-11.72914
 30
0.0
 10
-7.75509
 20
-11.72914
 30
0.0
 10
-7.75509
 20
-11.72914
 30
0.0
  0
SPLINE
  5
B3
330
1F
100
AcDbEntity
  8
Warstwa 1
370
    13
100
AcDbSpline
210
0.0
220
0.0
230
1.0
 70
    24
 71
     3
 72
     8
 73
     4
 74
     0
 42
0.0000000001
 43
0.0000000001
 40
0.0
 40
0.0
 40
0.0
 40
0.0
 40
1.0
 40
1.0
 40
1.0
 40
1.0
 10
-6.26975
 20
-9.24665
 30
0.0
 10
-6.26975
 20
-9.24665
 30
0.0
 10
-7.75509
 20
-9.24665
 30
0.0
 10
-7.75509
 20
-9.24665
 30
0.0
  0
SPLINE
  5
B4
330
1F
100
AcDbEntity
  8
Warstwa 1
370
    13
100
AcDbSpline
210
0.0
220
0.0
230
1.0
 70
    24
 71
     3
 72
     8
 73
     4
 74
     0
 42
0.0000000001
 43
0.0000000001
 40
0.0
 40
0.0
 40
0.0
 40
0.0
 40
1.0
 40
1.0
 40
1.0
 40
1.0
 10
-7.65511
 20
-11.72914
 30
0.0
 10
-7.65511
 20
-11.72914
 30
0.0
 10
-7.65511
 20
-9.24665
 30
0.0
 10
-7.65511
 20
-9.24665
 30
0.0
  0
SPLINE
  5
B5
330
1F
100
AcDbEntity
  8
Warstwa 1
370
    13
100
AcDbSpline
210
0.0
220
0.0
230
1.0
 70
    24
 71
     3
 72
     8
 73
     4
 74
     0
 42
0.0000000001
 43
0.0000000001
 40
0.0
 40
0.0
 40
0.0
 40
0.0
 40
1.0
 40
1.0
 40
1.0
 40
1.0
 10
-7.01476
 20
-11.87914
 30
0.0
 10
-7.01476
 20
-11.87914
 30
0.0
 10
-8.2123
 20
-11.87914
 30
0.0
 10
-8.2123
 20
-11.87914
 30
0.0
  0
SPLINE
  5
B6
330
1F
100
AcDbEntity
  8
Warstwa 1
370
    13
100
AcDbSpline
210
0.0
220
0.0
230
1.0
 70
    24
 71
     3
 72
     8
 73
     4
 74
     0
 42
0.0000000001
 43
0.0000000001
 40
0.0
 40
0.0
 40
0.0
 40
0.0
 40
1.0
 40
1.0
 40
1.0
 40
1.0
 10
-6.26976
 20
-9.24665
 30
0.0
 10
-6.26976
 20
-9.24665
 30
0.0
 10
-8.2123
 20
-9.24665
 30
0.0
 10
-8.2123
 20
-9.24665
 30
0.0
  0
SPLINE
  5
B7
330
1F
100
AcDbEntity
  8
Warstwa 1
370
    13
100
AcDbSpline
210
0.0
220
0.0
230
1.0
 70
    24
 71
     3
 72
     8
 73
     4
 74
     0
 42
0.0000000001
 43
0.0000000001
 40
0.0
 40
0.0
 40
0.0
 40
0.0
 40
1.0
 40
1.0
 40
1.0
 40
1.0
 10
-8.11229
 20
-11.87914
 30
0.0
 10
-8.11229
 20
-11.87914
 30
0.0
 10
-8.11229
 20
-9.24665
 30
0.0
 10
-8.11229
 20
-9.24665
 30
0.0
  0
SPLINE
  5
B8
330
1F
100
AcDbEntity
  8
Warstwa 1
370
    13
100
AcDbSpline
210
0.0
220
0.0
230
1.0
 70
    24
 71
     3
 72
     8
 73
     4
 74
     0
 42
0.0000000001
 43
0.0000000001
 40
0.0
 40
0.0
 40
0.0
 40
0.0
 40
1.0
 40
1.0
 40
1.0
 40
1.0
 10
-5.51356
 20
3.32066
 30
0.0
 10
-5.51356
 20
3.32066
 30
0.0
 10
-7.68251
 20
3.32066
 30
0.0
 10
-7.68251
 20
3.32066
 30
0.0
  0
SPLINE
  5
B9
330
1F
100
AcDbEntity
  8
Warstwa 1
370
    13
100
AcDbSpline
210
0.0
220
0.0
230
1.0
 70
    24
 71
     3
 72
     8
 73
     4
 74
     0
 42
0.0000000001
 43
0.0000000001
 40
0.0
 40
0.0
 40
0.0
 40
0.0
 40
1.0
 40
1.0
 40
1.0
 40
1.0
 10
-7.49987
 20
3.72808
 30
0.0
 10
-7.49987
 20
3.72808
 30
0.0
 10
-7.68251
 20
3.72808
 30
0.0
 10
-7.68251
 20
3.72808
 30
0.0
  0
SPLINE
  5
BA
330
1F
100
AcDbEntity
  8
Warstwa 1
370
    13
100
AcDbSpline
210
0.0
220
0.0
230
1.0
 70
    24
 71
     3
 72
     8
 73
     4
 74
     0
 42
0.0000000001
 43
0.0000000001
 40
0.0
 40
0.0
 40
0.0
 40
0.0
 40
1.0
 40
1.0
 40
1.0
 40
1.0
 10
-7.58249
 20
3.32066
 30
0.0
 10
-7.58249
 20
3.32066
 30
0.0
 10
-7.58249
 20
2.05504
 30
0.0
 10
-7.58249
 20
2.05504
 30
0.0
  0
SPLINE
  5
BB
330
1F
100
AcDbEntity
  8
Warstwa 1
370
    13
100
AcDbSpline
210
0.0
220
0.0
230
1.0
 70
    24
 71
     3
 72
     8
 73
     4
 74
     0
 42
0.0000000001
 43
0.0000000001
 40
0.0
 40
0.0
 40
0.0
 40
0.0
 40
1.0
 40
1.0
 40
1.0
 40
1.0
 10
-7.58249
 20
3.32066
 30
0.0
 10
-7.58249
 20
3.32066
 30
0.0
 10
-7.58249
 20
3.72808
 30
0.0
 10
-7.58249
 20
3.72808
 30
0.0
  0
SPLINE
  5
BC
330
1F
100
AcDbEntity
  8
Warstwa 1
370
    13
100
AcDbSpline
210
0.0
220
0.0
230
1.0
 70
    24
 71
     3
 72
     8
 73
     4
 74
     0
 42
0.0000000001
 43
0.0000000001
 40
0.0
 40
0.0
 40
0.0
 40
0.0
 40
1.0
 40
1.0
 40
1.0
 40
1.0
 10
-7.58249
 20
3.72808
 30
0.0
 10
-7.58249
 20
3.72808
 30
0.0
 10
-7.58249
 20
4.36308
 30
0.0
 10
-7.58249
 20
4.36308
 30
0.0
  0
SPLINE
  5
BD
330
1F
100
AcDbEntity
  8
Warstwa 1
370
    13
100
AcDbSpline
210
0.0
220
0.0
230
1.0
 70
    24
 71
     3
 72
     8
 73
     4
 74
     0
 42
0.0000000001
 43
0.0000000001
 40
0.0
 40
0.0
 40
0.0
 40
0.0
 40
1.0
 40
1.0
 40
1.0
 40
1.0
 10
0.35758
 20
5.88751
 30
0.0
 10
0.35758
 20
5.88751
 30
0.0
 10
1.58969
 20
5.88751
 30
0.0
 10
1.58969
 20
5.88751
 30
0.0
  0
SPLINE
  5
BE
330
1F
100
AcDbEntity
  8
Warstwa 1
370
    13
100
AcDbSpline
210
0.0
220
0.0
230
1.0
 70
    24
 71
     3
 72
     8
 73
     4
 74
     0
 42
0.0000000001
 43
0.0000000001
 40
0.0
 40
0.0
 40
0.0
 40
0.0
 40
1.0
 40
1.0
 40
1.0
 40
1.0
 10
0.43353
 20
7.7875
 30
0.0
 10
0.43353
 20
7.7875
 30
0.0
 10
1.58969
 20
7.7875
 30
0.0
 10
1.58969
 20
7.7875
 30
0.0
  0
SPLINE
  5
BF
330
1F
100
AcDbEntity
  8
Warstwa 1
370
    13
100
AcDbSpline
210
0.0
220
0.0
230
1.0
 70
    24
 71
     3
 72
     8
 73
     4
 74
     0
 42
0.0000000001
 43
0.0000000001
 40
0.0
 40
0.0
 40
0.0
 40
0.0
 40
1.0
 40
1.0
 40
1.0
 40
1.0
 10
1.48968
 20
5.88751
 30
0.0
 10
1.48968
 20
5.88751
 30
0.0
 10
1.48968
 20
7.7875
 30
0.0
 10
1.48968
 20
7.7875
 30
0.0
  0
SPLINE
  5
C0
330
1F
100
AcDbEntity
  8
Warstwa 1
370
    13
100
AcDbSpline
210
0.0
220
0.0
230
1.0
 70
    24
 71
     3
 72
     8
 73
     4
 74
     0
 42
0.0000000001
 43
0.0000000001
 40
0.0
 40
0.0
 40
0.0
 40
0.0
 40
1.0
 40
1.0
 40
1.0
 40
1.0
 10
-7.25476
 20
-4.76933
 30
0.0
 10
-7.25476
 20
-4.76933
 30
0.0
 10
-8.3434
 20
-4.76933
 30
0.0
 10
-8.3434
 20
-4.76933
 30
0.0
  0
SPLINE
  5
C1
330
1F
100
AcDbEntity
  8
Warstwa 1
370
    13
100
AcDbSpline
210
0.0
220
0.0
230
1.0
 70
    24
 71
     3
 72
     8
 73
     4
 74
     0
 42
0.0000000001
 43
0.0000000001
 40
0.0
 40
0.0
 40
0.0
 40
0.0
 40
1.0
 40
1.0
 40
1.0
 40
1.0
 10
-7.49987
 20
3.72809
 30
0.0
 10
-7.49987
 20
3.72809
 30
0.0
 10
-8.3434
 20
3.72809
 30
0.0
 10
-8.3434
 20
3.72809
 30
0.0
  0
SPLINE
  5
C2
330
1F
100
AcDbEntity
  8
Warstwa 1
370
    13
100
AcDbSpline
210
0.0
220
0.0
230
1.0
 70
    24
 71
     3
 72
     8
 73
     4
 74
     0
 42
0.0000000001
 43
0.0000000001
 40
0.0
 40
0.0
 40
0.0
 40
0.0
 40
1.0
 40
1.0
 40
1.0
 40
1.0
 10
-8.24342
 20
-4.76933
 30
0.0
 10
-8.24342
 20
-4.76933
 30
0.0
 10
-8.24342
 20
3.72809
 30
0.0
 10
-8.24342
 20
3.72809
 30
0.0
  0
SPLINE
  5
C3
330
1F
100
AcDbEntity
  8
Warstwa 1
370
    13
100
AcDbSpline
210
0.0
220
0.0
230
1.0
 70
    24
 71
     3
 72
     8
 73
     4
 74
     0
 42
0.0000000001
 43
0.0000000001
 40
0.0
 40
0.0
 40
0.0
 40
0.0
 40
1.0
 40
1.0
 40
1.0
 40
1.0
 10
-6.25198
 20
5.21999
 30
0.0
 10
-6.25198
 20
5.21999
 30
0.0
 10
-8.65507
 20
5.21999
 30
0.0
 10
-8.65507
 20
5.21999
 30
0.0
  0
SPLINE
  5
C4
330
1F
100
AcDbEntity
  8
Warstwa 1
370
    13
100
AcDbSpline
210
0.0
220
0.0
230
1.0
 70
    24
 71
     3
 72
     8
 73
     4
 74
     0
 42
0.0000000001
 43
0.0000000001
 40
0.0
 40
0.0
 40
0.0
 40
0.0
 40
1.0
 40
1.0
 40
1.0
 40
1.0
 10
-5.49763
 20
10.87248
 30
0.0
 10
-5.49763
 20
10.87248
 30
0.0
 10
-8.65507
 20
10.87248
 30
0.0
 10
-8.65507
 20
10.87248
 30
0.0
  0
SPLINE
  5
C5
330
1F
100
AcDbEntity
  8
Warstwa 1
370
    13
100
AcDbSpline
210
0.0
220
0.0
230
1.0
 70
    24
 71
     3
 72
     8
 73
     4
 74
     0
 42
0.0000000001
 43
0.0000000001
 40
0.0
 40
0.0
 40
0.0
 40
0.0
 40
1.0
 40
1.0
 40
1.0
 40
1.0
 10
-8.55505
 20
5.21999
 30
0.0
 10
-8.55505
 20
5.21999
 30
0.0
 10
-8.55505
 20
10.87248
 30
0.0
 10
-8.55505
 20
10.87248
 30
0.0
  0
SPLINE
  5
C6
330
1F
100
AcDbEntity
  8
Warstwa 1
370
    13
100
AcDbSpline
210
0.0
220
0.0
230
1.0
 70
    24
 71
     3
 72
     8
 73
     4
 74
     0
 42
0.0000000001
 43
0.0000000001
 40
0.0
 40
0.0
 40
0.0
 40
0.0
 40
1.0
 40
1.0
 40
1.0
 40
1.0
 10
0.11523
 20
-4.75434
 30
0.0
 10
0.11523
 20
-4.75434
 30
0.0
 10
1.01358
 20
-4.75434
 30
0.0
 10
1.01358
 20
-4.75434
 30
0.0
  0
SPLINE
  5
C7
330
1F
100
AcDbEntity
  8
Warstwa 1
370
    13
100
AcDbSpline
210
0.0
220
0.0
230
1.0
 70
    24
 71
     3
 72
     8
 73
     4
 74
     0
 42
0.0000000001
 43
0.0000000001
 40
0.0
 40
0.0
 40
0.0
 40
0.0
 40
1.0
 40
1.0
 40
1.0
 40
1.0
 10
0.49591
 20
2.69219
 30
0.0
 10
0.49591
 20
2.69219
 30
0.0
 10
1.01358
 20
2.69219
 30
0.0
 10
1.01358
 20
2.69219
 30
0.0
  0
SPLINE
  5
C8
330
1F
100
AcDbEntity
  8
Warstwa 1
370
    13
100
AcDbSpline
210
0.0
220
0.0
230
1.0
 70
    24
 71
     3
 72
     8
 73
     4
 74
     0
 42
0.0000000001
 43
0.0000000001
 40
0.0
 40
0.0
 40
0.0
 40
0.0
 40
1.0
 40
1.0
 40
1.0
 40
1.0
 10
0.91357
 20
-4.75434
 30
0.0
 10
0.91357
 20
-4.75434
 30
0.0
 10
0.91357
 20
2.69219
 30
0.0
 10
0.91357
 20
2.69219
 30
0.0
  0
SPLINE
  5
C9
330
1F
100
AcDbEntity
  8
Warstwa 1
370
    13
100
AcDbSpline
210
0.0
220
0.0
230
1.0
 70
    24
 71
     3
 72
     8
 73
     4
 74
     0
 42
0.0000000001
 43
0.0000000001
 40
0.0
 40
0.0
 40
0.0
 40
0.0
 40
1.0
 40
1.0
 40
1.0
 40
1.0
 10
-6.56721
 20
9.6425
 30
0.0
 10
-6.56721
 20
9.6425
 30
0.0
 10
-7.66911
 20
9.6425
 30
0.0
 10
-7.66911
 20
9.6425
 30
0.0
  0
SPLINE
  5
CA
330
1F
100
AcDbEntity
  8
Warstwa 1
370
    13
100
AcDbSpline
210
0.0
220
0.0
230
1.0
 70
    24
 71
     3
 72
     8
 73
     4
 74
     0
 42
0.0000000001
 43
0.0000000001
 40
0.0
 40
0.0
 40
0.0
 40
0.0
 40
1.0
 40
1.0
 40
1.0
 40
1.0
 10
-6.56721
 20
6.83749
 30
0.0
 10
-6.56721
 20
6.83749
 30
0.0
 10
-7.66911
 20
6.83749
 30
0.0
 10
-7.66911
 20
6.83749
 30
0.0
  0
SPLINE
  5
CB
330
1F
100
AcDbEntity
  8
Warstwa 1
370
    13
100
AcDbSpline
210
0.0
220
0.0
230
1.0
 70
    24
 71
     3
 72
     8
 73
     4
 74
     0
 42
0.0000000001
 43
0.0000000001
 40
0.0
 40
0.0
 40
0.0
 40
0.0
 40
1.0
 40
1.0
 40
1.0
 40
1.0
 10
-7.5691
 20
9.6425
 30
0.0
 10
-7.5691
 20
9.6425
 30
0.0
 10
-7.5691
 20
6.83749
 30
0.0
 10
-7.5691
 20
6.83749
 30
0.0
  0
SPLINE
  5
CC
330
1F
100
AcDbEntity
  8
Warstwa 1
370
    13
100
AcDbSpline
210
0.0
220
0.0
230
1.0
 70
    24
 71
     3
 72
     8
 73
     4
 74
     0
 42
0.0000000001
 43
0.0000000001
 40
0.0
 40
0.0
 40
0.0
 40
0.0
 40
1.0
 40
1.0
 40
1.0
 40
1.0
 10
0.43353
 20
7.63748
 30
0.0
 10
0.43353
 20
7.63748
 30
0.0
 10
1.15358
 20
7.63748
 30
0.0
 10
1.15358
 20
7.63748
 30
0.0
  0
SPLINE
  5
CD
330
1F
100
AcDbEntity
  8
Warstwa 1
370
    13
100
AcDbSpline
210
0.0
220
0.0
230
1.0
 70
    24
 71
     3
 72
     8
 73
     4
 74
     0
 42
0.0000000001
 43
0.0000000001
 40
0.0
 40
0.0
 40
0.0
 40
0.0
 40
1.0
 40
1.0
 40
1.0
 40
1.0
 10
0.43353
 20
6.03749
 30
0.0
 10
0.43353
 20
6.03749
 30
0.0
 10
1.15358
 20
6.03749
 30
0.0
 10
1.15358
 20
6.03749
 30
0.0
  0
SPLINE
  5
CE
330
1F
100
AcDbEntity
  8
Warstwa 1
370
    13
100
AcDbSpline
210
0.0
220
0.0
230
1.0
 70
    24
 71
     3
 72
     8
 73
     4
 74
     0
 42
0.0000000001
 43
0.0000000001
 40
0.0
 40
0.0
 40
0.0
 40
0.0
 40
1.0
 40
1.0
 40
1.0
 40
1.0
 10
1.05357
 20
7.63748
 30
0.0
 10
1.05357
 20
7.63748
 30
0.0
 10
1.05357
 20
6.03749
 30
0.0
 10
1.05357
 20
6.03749
 30
0.0
  0
SPLINE
  5
CF
330
1F
100
AcDbEntity
  8
Warstwa 1
370
    13
100
AcDbSpline
210
0.0
220
0.0
230
1.0
 70
    24
 71
     3
 72
     8
 73
     4
 74
     0
 42
0.0000000001
 43
0.0000000001
 40
0.0
 40
0.0
 40
0.0
 40
0.0
 40
1.0
 40
1.0
 40
1.0
 40
1.0
 10
3.64246
 20
-4.76935
 30
0.0
 10
3.64246
 20
-4.76935
 30
0.0
 10
3.71207
 20
-4.76935
 30
0.0
 10
3.71207
 20
-4.76935
 30
0.0
  0
SPLINE
  5
D0
330
1F
100
AcDbEntity
  8
Warstwa 1
370
    13
100
AcDbSpline
210
0.0
220
0.0
230
1.0
 70
    24
 71
     3
 72
     8
 73
     4
 74
     0
 42
0.0000000001
 43
0.0000000001
 40
0.0
 40
0.0
 40
0.0
 40
0.0
 40
1.0
 40
1.0
 40
1.0
 40
1.0
 10
3.78245
 20
-7.11934
 30
0.0
 10
3.78245
 20
-7.11934
 30
0.0
 10
3.71207
 20
-7.11934
 30
0.0
 10
3.71207
 20
-7.11934
 30
0.0
  0
SPLINE
  5
D1
330
1F
100
AcDbEntity
  8
Warstwa 1
370
    13
100
AcDbSpline
210
0.0
220
0.0
230
1.0
 70
    24
 71
     3
 72
     8
 73
     4
 74
     0
 42
0.0000000001
 43
0.0000000001
 40
0.0
 40
0.0
 40
0.0
 40
0.0
 40
1.0
 40
1.0
 40
1.0
 40
1.0
 10
3.81204
 20
-4.76935
 30
0.0
 10
3.81204
 20
-4.76935
 30
0.0
 10
3.81204
 20
-7.11934
 30
0.0
 10
3.81204
 20
-7.11934
 30
0.0
  0
SPLINE
  5
D2
330
1F
100
AcDbEntity
  8
Warstwa 1
370
    13
100
AcDbSpline
210
0.0
220
0.0
230
1.0
 70
    24
 71
     3
 72
     8
 73
     4
 74
     0
 42
0.0000000001
 43
0.0000000001
 40
0.0
 40
0.0
 40
0.0
 40
0.0
 40
1.0
 40
1.0
 40
1.0
 40
1.0
 10
-5.49764
 20
10.8725
 30
0.0
 10
-5.49764
 20
10.8725
 30
0.0
 10
-7.66909
 20
10.8725
 30
0.0
 10
-7.66909
 20
10.8725
 30
0.0
  0
SPLINE
  5
D3
330
1F
100
AcDbEntity
  8
Warstwa 1
370
    13
100
AcDbSpline
210
0.0
220
0.0
230
1.0
 70
    24
 71
     3
 72
     8
 73
     4
 74
     0
 42
0.0000000001
 43
0.0000000001
 40
0.0
 40
0.0
 40
0.0
 40
0.0
 40
1.0
 40
1.0
 40
1.0
 40
1.0
 10
-6.56719
 20
9.6425
 30
0.0
 10
-6.56719
 20
9.6425
 30
0.0
 10
-7.66909
 20
9.6425
 30
0.0
 10
-7.66909
 20
9.6425
 30
0.0
  0
SPLINE
  5
D4
330
1F
100
AcDbEntity
  8
Warstwa 1
370
    13
100
AcDbSpline
210
0.0
220
0.0
230
1.0
 70
    24
 71
     3
 72
     8
 73
     4
 74
     0
 42
0.0000000001
 43
0.0000000001
 40
0.0
 40
0.0
 40
0.0
 40
0.0
 40
1.0
 40
1.0
 40
1.0
 40
1.0
 10
-7.56912
 20
10.8725
 30
0.0
 10
-7.56912
 20
10.8725
 30
0.0
 10
-7.56912
 20
9.6425
 30
0.0
 10
-7.56912
 20
9.6425
 30
0.0
  0
SPLINE
  5
D5
330
1F
100
AcDbEntity
  8
Warstwa 1
370
    13
100
AcDbSpline
210
0.0
220
0.0
230
1.0
 70
    24
 71
     3
 72
     8
 73
     4
 74
     0
 42
0.0000000001
 43
0.0000000001
 40
0.0
 40
0.0
 40
0.0
 40
0.0
 40
1.0
 40
1.0
 40
1.0
 40
1.0
 10
-6.16976
 20
-9.34662
 30
0.0
 10
-6.16976
 20
-9.34662
 30
0.0
 10
-6.16976
 20
-12.71572
 30
0.0
 10
-6.16976
 20
-12.71572
 30
0.0
  0
SPLINE
  5
D6
330
1F
100
AcDbEntity
  8
Warstwa 1
370
    13
100
AcDbSpline
210
0.0
220
0.0
230
1.0
 70
    24
 71
     3
 72
     8
 73
     4
 74
     0
 42
0.0000000001
 43
0.0000000001
 40
0.0
 40
0.0
 40
0.0
 40
0.0
 40
1.0
 40
1.0
 40
1.0
 40
1.0
 10
-0.96975
 20
-9.34662
 30
0.0
 10
-0.96975
 20
-9.34662
 30
0.0
 10
-0.96975
 20
-12.71572
 30
0.0
 10
-0.96975
 20
-12.71572
 30
0.0
  0
SPLINE
  5
D7
330
1F
100
AcDbEntity
  8
Warstwa 1
370
    13
100
AcDbSpline
210
0.0
220
0.0
230
1.0
 70
    24
 71
     3
 72
     8
 73
     4
 74
     0
 42
0.0000000001
 43
0.0000000001
 40
0.0
 40
0.0
 40
0.0
 40
0.0
 40
1.0
 40
1.0
 40
1.0
 40
1.0
 10
-6.16976
 20
-12.61574
 30
0.0
 10
-6.16976
 20
-12.61574
 30
0.0
 10
-0.96975
 20
-12.61574
 30
0.0
 10
-0.96975
 20
-12.61574
 30
0.0
  0
SPLINE
  5
D8
330
1F
100
AcDbEntity
  8
Warstwa 1
100
AcDbSpline
210
0.0
220
0.0
230
1.0
 70
    11
 71
     3
 72
    16
 73
    12
 74
     0
 42
0.0000000001
 43
0.0000000001
 40
0.0
 40
0.0
 40
0.0
 40
0.0
 40
0.25
 40
0.25
 40
0.25
 40
0.25
 40
0.5
 40
0.5
 40
0.5
 40
0.5
 40
1.0
 40
1.0
 40
1.0
 40
1.0
 10
0.04273
 20
11.92284
 30
0.0
 10
0.04273
 20
11.92284
 30
0.0
 10
-0.28747
 20
11.87204
 30
0.0
 10
-0.28747
 20
11.87204
 30
0.0
 10
-0.28747
 20
11.87204
 30
0.0
 10
-0.28747
 20
11.87204
 30
0.0
 10
-0.28747
 20
11.97364
 30
0.0
 10
-0.28747
 20
11.97364
 30
0.0
 10
-0.28747
 20
11.97364
 30
0.0
 10
-0.28747
 20
11.97364
 30
0.0
 10
0.04273
 20
11.92284
 30
0.0
 10
0.04273
 20
11.92284
 30
0.0
  0
SPLINE
  5
D9
330
1F
100
AcDbEntity
  8
Warstwa 1
100
AcDbSpline
210
0.0
220
0.0
230
1.0
 70
    11
 71
     3
 72
    16
 73
    12
 74
     0
 42
0.0000000001
 43
0.0000000001
 40
0.0
 40
0.0
 40
0.0
 40
0.0
 40
0.25
 40
0.25
 40
0.25
 40
0.25
 40
0.5
 40
0.5
 40
0.5
 40
0.5
 40
1.0
 40
1.0
 40
1.0
 40
1.0
 10
-7.18227
 20
11.92284
 30
0.0
 10
-7.18227
 20
11.92284
 30
0.0
 10
-6.85207
 20
11.97364
 30
0.0
 10
-6.85207
 20
11.97364
 30
0.0
 10
-6.85207
 20
11.97364
 30
0.0
 10
-6.85207
 20
11.97364
 30
0.0
 10
-6.85207
 20
11.87204
 30
0.0
 10
-6.85207
 20
11.87204
 30
0.0
 10
-6.85207
 20
11.87204
 30
0.0
 10
-6.85207
 20
11.87204
 30
0.0
 10
-7.18227
 20
11.92284
 30
0.0
 10
-7.18227
 20
11.92284
 30
0.0
  0
SPLINE
  5
DA
330
1F
100
AcDbEntity
  8
Warstwa 1
100
AcDbSpline
210
0.0
220
0.0
230
1.0
 70
    11
 71
     3
 72
    16
 73
    12
 74
     0
 42
0.0000000001
 43
0.0000000001
 40
0.0
 40
0.0
 40
0.0
 40
0.0
 40
0.25
 40
0.25
 40
0.25
 40
0.25
 40
0.5
 40
0.5
 40
0.5
 40
0.5
 40
1.0
 40
1.0
 40
1.0
 40
1.0
 10
0.36354
 20
11.92284
 30
0.0
 10
0.36354
 20
11.92284
 30
0.0
 10
0.69374
 20
11.97364
 30
0.0
 10
0.69374
 20
11.97364
 30
0.0
 10
0.69374
 20
11.97364
 30
0.0
 10
0.69374
 20
11.97364
 30
0.0
 10
0.69374
 20
11.87204
 30
0.0
 10
0.69374
 20
11.87204
 30
0.0
 10
0.69374
 20
11.87204
 30
0.0
 10
0.69374
 20
11.87204
 30
0.0
 10
0.36354
 20
11.92284
 30
0.0
 10
0.36354
 20
11.92284
 30
0.0
  0
SPLINE
  5
DB
330
1F
100
AcDbEntity
  8
Warstwa 1
100
AcDbSpline
210
0.0
220
0.0
230
1.0
 70
    11
 71
     3
 72
    16
 73
    12
 74
     0
 42
0.0000000001
 43
0.0000000001
 40
0.0
 40
0.0
 40
0.0
 40
0.0
 40
0.25
 40
0.25
 40
0.25
 40
0.25
 40
0.5
 40
0.5
 40
0.5
 40
0.5
 40
1.0
 40
1.0
 40
1.0
 40
1.0
 10
0.04273
 20
11.92284
 30
0.0
 10
0.04273
 20
11.92284
 30
0.0
 10
-0.28747
 20
11.87204
 30
0.0
 10
-0.28747
 20
11.87204
 30
0.0
 10
-0.28747
 20
11.87204
 30
0.0
 10
-0.28747
 20
11.87204
 30
0.0
 10
-0.28747
 20
11.97364
 30
0.0
 10
-0.28747
 20
11.97364
 30
0.0
 10
-0.28747
 20
11.97364
 30
0.0
 10
-0.28747
 20
11.97364
 30
0.0
 10
0.04273
 20
11.92284
 30
0.0
 10
0.04273
 20
11.92284
 30
0.0
  0
SPLINE
  5
DC
330
1F
100
AcDbEntity
  8
Warstwa 1
100
AcDbSpline
210
0.0
220
0.0
230
1.0
 70
    11
 71
     3
 72
    16
 73
    12
 74
     0
 42
0.0000000001
 43
0.0000000001
 40
0.0
 40
0.0
 40
0.0
 40
0.0
 40
0.25
 40
0.25
 40
0.25
 40
0.25
 40
0.5
 40
0.5
 40
0.5
 40
0.5
 40
1.0
 40
1.0
 40
1.0
 40
1.0
 10
-6.46976
 20
11.46623
 30
0.0
 10
-6.46976
 20
11.46623
 30
0.0
 10
-6.13956
 20
11.51703
 30
0.0
 10
-6.13956
 20
11.51703
 30
0.0
 10
-6.13956
 20
11.51703
 30
0.0
 10
-6.13956
 20
11.51703
 30
0.0
 10
-6.13956
 20
11.41543
 30
0.0
 10
-6.13956
 20
11.41543
 30
0.0
 10
-6.13956
 20
11.41543
 30
0.0
 10
-6.13956
 20
11.41543
 30
0.0
 10
-6.46976
 20
11.46623
 30
0.0
 10
-6.46976
 20
11.46623
 30
0.0
  0
SPLINE
  5
DD
330
1F
100
AcDbEntity
  8
Warstwa 1
100
AcDbSpline
210
0.0
220
0.0
230
1.0
 70
    11
 71
     3
 72
    16
 73
    12
 74
     0
 42
0.0000000001
 43
0.0000000001
 40
0.0
 40
0.0
 40
0.0
 40
0.0
 40
0.25
 40
0.25
 40
0.25
 40
0.25
 40
0.5
 40
0.5
 40
0.5
 40
0.5
 40
1.0
 40
1.0
 40
1.0
 40
1.0
 10
-7.43221
 20
11.92283
 30
0.0
 10
-7.43221
 20
11.92283
 30
0.0
 10
-7.76241
 20
11.87203
 30
0.0
 10
-7.76241
 20
11.87203
 30
0.0
 10
-7.76241
 20
11.87203
 30
0.0
 10
-7.76241
 20
11.87203
 30
0.0
 10
-7.76241
 20
11.97363
 30
0.0
 10
-7.76241
 20
11.97363
 30
0.0
 10
-7.76241
 20
11.97363
 30
0.0
 10
-7.76241
 20
11.97363
 30
0.0
 10
-7.43221
 20
11.92283
 30
0.0
 10
-7.43221
 20
11.92283
 30
0.0
  0
SPLINE
  5
DE
330
1F
100
AcDbEntity
  8
Warstwa 1
100
AcDbSpline
210
0.0
220
0.0
230
1.0
 70
    11
 71
     3
 72
    16
 73
    12
 74
     0
 42
0.0000000001
 43
0.0000000001
 40
0.0
 40
0.0
 40
0.0
 40
0.0
 40
0.25
 40
0.25
 40
0.25
 40
0.25
 40
0.5
 40
0.5
 40
0.5
 40
0.5
 40
1.0
 40
1.0
 40
1.0
 40
1.0
 10
-7.18226
 20
11.92283
 30
0.0
 10
-7.18226
 20
11.92283
 30
0.0
 10
-6.85206
 20
11.97363
 30
0.0
 10
-6.85206
 20
11.97363
 30
0.0
 10
-6.85206
 20
11.97363
 30
0.0
 10
-6.85206
 20
11.97363
 30
0.0
 10
-6.85206
 20
11.87203
 30
0.0
 10
-6.85206
 20
11.87203
 30
0.0
 10
-6.85206
 20
11.87203
 30
0.0
 10
-6.85206
 20
11.87203
 30
0.0
 10
-7.18226
 20
11.92283
 30
0.0
 10
-7.18226
 20
11.92283
 30
0.0
  0
SPLINE
  5
DF
330
1F
100
AcDbEntity
  8
Warstwa 1
100
AcDbSpline
210
0.0
220
0.0
230
1.0
 70
    11
 71
     3
 72
    16
 73
    12
 74
     0
 42
0.0000000001
 43
0.0000000001
 40
0.0
 40
0.0
 40
0.0
 40
0.0
 40
0.25
 40
0.25
 40
0.25
 40
0.25
 40
0.5
 40
0.5
 40
0.5
 40
0.5
 40
1.0
 40
1.0
 40
1.0
 40
1.0
 10
8.88245
 20
4.85679
 30
0.0
 10
8.88245
 20
4.85679
 30
0.0
 10
9.21265
 20
4.90759
 30
0.0
 10
9.21265
 20
4.90759
 30
0.0
 10
9.21265
 20
4.90759
 30
0.0
 10
9.21265
 20
4.90759
 30
0.0
 10
9.21265
 20
4.80599
 30
0.0
 10
9.21265
 20
4.80599
 30
0.0
 10
9.21265
 20
4.80599
 30
0.0
 10
9.21265
 20
4.80599
 30
0.0
 10
8.88245
 20
4.85679
 30
0.0
 10
8.88245
 20
4.85679
 30
0.0
  0
SPLINE
  5
E0
330
1F
100
AcDbEntity
  8
Warstwa 1
100
AcDbSpline
210
0.0
220
0.0
230
1.0
 70
    11
 71
     3
 72
    16
 73
    12
 74
     0
 42
0.0000000001
 43
0.0000000001
 40
0.0
 40
0.0
 40
0.0
 40
0.0
 40
0.25
 40
0.25
 40
0.25
 40
0.25
 40
0.5
 40
0.5
 40
0.5
 40
0.5
 40
1.0
 40
1.0
 40
1.0
 40
1.0
 10
8.78244
 20
4.85679
 30
0.0
 10
8.78244
 20
4.85679
 30
0.0
 10
8.45224
 20
4.80599
 30
0.0
 10
8.45224
 20
4.80599
 30
0.0
 10
8.45224
 20
4.80599
 30
0.0
 10
8.45224
 20
4.80599
 30
0.0
 10
8.45224
 20
4.90759
 30
0.0
 10
8.45224
 20
4.90759
 30
0.0
 10
8.45224
 20
4.90759
 30
0.0
 10
8.45224
 20
4.90759
 30
0.0
 10
8.78244
 20
4.85679
 30
0.0
 10
8.78244
 20
4.85679
 30
0.0
  0
SPLINE
  5
E1
330
1F
100
AcDbEntity
  8
Warstwa 1
100
AcDbSpline
210
0.0
220
0.0
230
1.0
 70
    11
 71
     3
 72
    16
 73
    12
 74
     0
 42
0.0000000001
 43
0.0000000001
 40
0.0
 40
0.0
 40
0.0
 40
0.0
 40
0.25
 40
0.25
 40
0.25
 40
0.25
 40
0.5
 40
0.5
 40
0.5
 40
0.5
 40
1.0
 40
1.0
 40
1.0
 40
1.0
 10
-7.6551
 20
-11.72914
 30
0.0
 10
-7.6551
 20
-11.72914
 30
0.0
 10
-7.7059
 20
-11.39894
 30
0.0
 10
-7.7059
 20
-11.39894
 30
0.0
 10
-7.7059
 20
-11.39894
 30
0.0
 10
-7.7059
 20
-11.39894
 30
0.0
 10
-7.6043
 20
-11.39894
 30
0.0
 10
-7.6043
 20
-11.39894
 30
0.0
 10
-7.6043
 20
-11.39894
 30
0.0
 10
-7.6043
 20
-11.39894
 30
0.0
 10
-7.6551
 20
-11.72914
 30
0.0
 10
-7.6551
 20
-11.72914
 30
0.0
  0
SPLINE
  5
E2
330
1F
100
AcDbEntity
  8
Warstwa 1
100
AcDbSpline
210
0.0
220
0.0
230
1.0
 70
    11
 71
     3
 72
    16
 73
    12
 74
     0
 42
0.0000000001
 43
0.0000000001
 40
0.0
 40
0.0
 40
0.0
 40
0.0
 40
0.25
 40
0.25
 40
0.25
 40
0.25
 40
0.5
 40
0.5
 40
0.5
 40
0.5
 40
1.0
 40
1.0
 40
1.0
 40
1.0
 10
-7.6551
 20
-9.24665
 30
0.0
 10
-7.6551
 20
-9.24665
 30
0.0
 10
-7.6043
 20
-9.57681
 30
0.0
 10
-7.6043
 20
-9.57681
 30
0.0
 10
-7.6043
 20
-9.57681
 30
0.0
 10
-7.6043
 20
-9.57681
 30
0.0
 10
-7.7059
 20
-9.57681
 30
0.0
 10
-7.7059
 20
-9.57681
 30
0.0
 10
-7.7059
 20
-9.57681
 30
0.0
 10
-7.7059
 20
-9.57681
 30
0.0
 10
-7.6551
 20
-9.24665
 30
0.0
 10
-7.6551
 20
-9.24665
 30
0.0
  0
SPLINE
  5
E3
330
1F
100
AcDbEntity
  8
Warstwa 1
100
AcDbSpline
210
0.0
220
0.0
230
1.0
 70
    11
 71
     3
 72
    16
 73
    12
 74
     0
 42
0.0000000001
 43
0.0000000001
 40
0.0
 40
0.0
 40
0.0
 40
0.0
 40
0.25
 40
0.25
 40
0.25
 40
0.25
 40
0.5
 40
0.5
 40
0.5
 40
0.5
 40
1.0
 40
1.0
 40
1.0
 40
1.0
 10
-8.11231
 20
-11.87914
 30
0.0
 10
-8.11231
 20
-11.87914
 30
0.0
 10
-8.16311
 20
-11.54894
 30
0.0
 10
-8.16311
 20
-11.54894
 30
0.0
 10
-8.16311
 20
-11.54894
 30
0.0
 10
-8.16311
 20
-11.54894
 30
0.0
 10
-8.06151
 20
-11.54894
 30
0.0
 10
-8.06151
 20
-11.54894
 30
0.0
 10
-8.06151
 20
-11.54894
 30
0.0
 10
-8.06151
 20
-11.54894
 30
0.0
 10
-8.11231
 20
-11.87914
 30
0.0
 10
-8.11231
 20
-11.87914
 30
0.0
  0
SPLINE
  5
E4
330
1F
100
AcDbEntity
  8
Warstwa 1
100
AcDbSpline
210
0.0
220
0.0
230
1.0
 70
    11
 71
     3
 72
    16
 73
    12
 74
     0
 42
0.0000000001
 43
0.0000000001
 40
0.0
 40
0.0
 40
0.0
 40
0.0
 40
0.25
 40
0.25
 40
0.25
 40
0.25
 40
0.5
 40
0.5
 40
0.5
 40
0.5
 40
1.0
 40
1.0
 40
1.0
 40
1.0
 10
-8.11231
 20
-9.24665
 30
0.0
 10
-8.11231
 20
-9.24665
 30
0.0
 10
-8.06151
 20
-9.57681
 30
0.0
 10
-8.06151
 20
-9.57681
 30
0.0
 10
-8.06151
 20
-9.57681
 30
0.0
 10
-8.06151
 20
-9.57681
 30
0.0
 10
-8.16311
 20
-9.57681
 30
0.0
 10
-8.16311
 20
-9.57681
 30
0.0
 10
-8.16311
 20
-9.57681
 30
0.0
 10
-8.16311
 20
-9.57681
 30
0.0
 10
-8.11231
 20
-9.24665
 30
0.0
 10
-8.11231
 20
-9.24665
 30
0.0
  0
SPLINE
  5
E5
330
1F
100
AcDbEntity
  8
Warstwa 1
100
AcDbSpline
210
0.0
220
0.0
230
1.0
 70
    11
 71
     3
 72
    16
 73
    12
 74
     0
 42
0.0000000001
 43
0.0000000001
 40
0.0
 40
0.0
 40
0.0
 40
0.0
 40
0.25
 40
0.25
 40
0.25
 40
0.25
 40
0.5
 40
0.5
 40
0.5
 40
0.5
 40
1.0
 40
1.0
 40
1.0
 40
1.0
 10
-7.58249
 20
3.32066
 30
0.0
 10
-7.58249
 20
3.32066
 30
0.0
 10
-7.53169
 20
2.99046
 30
0.0
 10
-7.53169
 20
2.99046
 30
0.0
 10
-7.53169
 20
2.99046
 30
0.0
 10
-7.53169
 20
2.99046
 30
0.0
 10
-7.63329
 20
2.99046
 30
0.0
 10
-7.63329
 20
2.99046
 30
0.0
 10
-7.63329
 20
2.99046
 30
0.0
 10
-7.63329
 20
2.99046
 30
0.0
 10
-7.58249
 20
3.32066
 30
0.0
 10
-7.58249
 20
3.32066
 30
0.0
  0
SPLINE
  5
E6
330
1F
100
AcDbEntity
  8
Warstwa 1
100
AcDbSpline
210
0.0
220
0.0
230
1.0
 70
    11
 71
     3
 72
    16
 73
    12
 74
     0
 42
0.0000000001
 43
0.0000000001
 40
0.0
 40
0.0
 40
0.0
 40
0.0
 40
0.25
 40
0.25
 40
0.25
 40
0.25
 40
0.5
 40
0.5
 40
0.5
 40
0.5
 40
1.0
 40
1.0
 40
1.0
 40
1.0
 10
-7.58249
 20
3.72808
 30
0.0
 10
-7.58249
 20
3.72808
 30
0.0
 10
-7.63329
 20
4.05828
 30
0.0
 10
-7.63329
 20
4.05828
 30
0.0
 10
-7.63329
 20
4.05828
 30
0.0
 10
-7.63329
 20
4.05828
 30
0.0
 10
-7.53169
 20
4.05828
 30
0.0
 10
-7.53169
 20
4.05828
 30
0.0
 10
-7.53169
 20
4.05828
 30
0.0
 10
-7.53169
 20
4.05828
 30
0.0
 10
-7.58249
 20
3.72808
 30
0.0
 10
-7.58249
 20
3.72808
 30
0.0
  0
SPLINE
  5
E7
330
1F
100
AcDbEntity
  8
Warstwa 1
100
AcDbSpline
210
0.0
220
0.0
230
1.0
 70
    11
 71
     3
 72
    16
 73
    12
 74
     0
 42
0.0000000001
 43
0.0000000001
 40
0.0
 40
0.0
 40
0.0
 40
0.0
 40
0.25
 40
0.25
 40
0.25
 40
0.25
 40
0.5
 40
0.5
 40
0.5
 40
0.5
 40
1.0
 40
1.0
 40
1.0
 40
1.0
 10
1.48968
 20
5.88751
 30
0.0
 10
1.48968
 20
5.88751
 30
0.0
 10
1.43888
 20
6.21771
 30
0.0
 10
1.43888
 20
6.21771
 30
0.0
 10
1.43888
 20
6.21771
 30
0.0
 10
1.43888
 20
6.21771
 30
0.0
 10
1.54048
 20
6.21771
 30
0.0
 10
1.54048
 20
6.21771
 30
0.0
 10
1.54048
 20
6.21771
 30
0.0
 10
1.54048
 20
6.21771
 30
0.0
 10
1.48968
 20
5.88751
 30
0.0
 10
1.48968
 20
5.88751
 30
0.0
  0
SPLINE
  5
E8
330
1F
100
AcDbEntity
  8
Warstwa 1
100
AcDbSpline
210
0.0
220
0.0
230
1.0
 70
    11
 71
     3
 72
    16
 73
    12
 74
     0
 42
0.0000000001
 43
0.0000000001
 40
0.0
 40
0.0
 40
0.0
 40
0.0
 40
0.25
 40
0.25
 40
0.25
 40
0.25
 40
0.5
 40
0.5
 40
0.5
 40
0.5
 40
1.0
 40
1.0
 40
1.0
 40
1.0
 10
1.48968
 20
7.7875
 30
0.0
 10
1.48968
 20
7.7875
 30
0.0
 10
1.54048
 20
7.4573
 30
0.0
 10
1.54048
 20
7.4573
 30
0.0
 10
1.54048
 20
7.4573
 30
0.0
 10
1.54048
 20
7.4573
 30
0.0
 10
1.43888
 20
7.4573
 30
0.0
 10
1.43888
 20
7.4573
 30
0.0
 10
1.43888
 20
7.4573
 30
0.0
 10
1.43888
 20
7.4573
 30
0.0
 10
1.48968
 20
7.7875
 30
0.0
 10
1.48968
 20
7.7875
 30
0.0
  0
SPLINE
  5
E9
330
1F
100
AcDbEntity
  8
Warstwa 1
100
AcDbSpline
210
0.0
220
0.0
230
1.0
 70
    11
 71
     3
 72
    16
 73
    12
 74
     0
 42
0.0000000001
 43
0.0000000001
 40
0.0
 40
0.0
 40
0.0
 40
0.0
 40
0.25
 40
0.25
 40
0.25
 40
0.25
 40
0.5
 40
0.5
 40
0.5
 40
0.5
 40
1.0
 40
1.0
 40
1.0
 40
1.0
 10
-8.24342
 20
-4.76933
 30
0.0
 10
-8.24342
 20
-4.76933
 30
0.0
 10
-8.29422
 20
-4.43916
 30
0.0
 10
-8.29422
 20
-4.43916
 30
0.0
 10
-8.29422
 20
-4.43916
 30
0.0
 10
-8.29422
 20
-4.43916
 30
0.0
 10
-8.19262
 20
-4.43916
 30
0.0
 10
-8.19262
 20
-4.43916
 30
0.0
 10
-8.19262
 20
-4.43916
 30
0.0
 10
-8.19262
 20
-4.43916
 30
0.0
 10
-8.24342
 20
-4.76933
 30
0.0
 10
-8.24342
 20
-4.76933
 30
0.0
  0
SPLINE
  5
EA
330
1F
100
AcDbEntity
  8
Warstwa 1
100
AcDbSpline
210
0.0
220
0.0
230
1.0
 70
    11
 71
     3
 72
    16
 73
    12
 74
     0
 42
0.0000000001
 43
0.0000000001
 40
0.0
 40
0.0
 40
0.0
 40
0.0
 40
0.25
 40
0.25
 40
0.25
 40
0.25
 40
0.5
 40
0.5
 40
0.5
 40
0.5
 40
1.0
 40
1.0
 40
1.0
 40
1.0
 10
-8.24342
 20
3.72809
 30
0.0
 10
-8.24342
 20
3.72809
 30
0.0
 10
-8.19262
 20
3.39789
 30
0.0
 10
-8.19262
 20
3.39789
 30
0.0
 10
-8.19262
 20
3.39789
 30
0.0
 10
-8.19262
 20
3.39789
 30
0.0
 10
-8.29422
 20
3.39789
 30
0.0
 10
-8.29422
 20
3.39789
 30
0.0
 10
-8.29422
 20
3.39789
 30
0.0
 10
-8.29422
 20
3.39789
 30
0.0
 10
-8.24342
 20
3.72809
 30
0.0
 10
-8.24342
 20
3.72809
 30
0.0
  0
SPLINE
  5
EB
330
1F
100
AcDbEntity
  8
Warstwa 1
100
AcDbSpline
210
0.0
220
0.0
230
1.0
 70
    11
 71
     3
 72
    16
 73
    12
 74
     0
 42
0.0000000001
 43
0.0000000001
 40
0.0
 40
0.0
 40
0.0
 40
0.0
 40
0.25
 40
0.25
 40
0.25
 40
0.25
 40
0.5
 40
0.5
 40
0.5
 40
0.5
 40
1.0
 40
1.0
 40
1.0
 40
1.0
 10
-8.55506
 20
5.21999
 30
0.0
 10
-8.55506
 20
5.21999
 30
0.0
 10
-8.60586
 20
5.55019
 30
0.0
 10
-8.60586
 20
5.55019
 30
0.0
 10
-8.60586
 20
5.55019
 30
0.0
 10
-8.60586
 20
5.55019
 30
0.0
 10
-8.50426
 20
5.55019
 30
0.0
 10
-8.50426
 20
5.55019
 30
0.0
 10
-8.50426
 20
5.55019
 30
0.0
 10
-8.50426
 20
5.55019
 30
0.0
 10
-8.55506
 20
5.21999
 30
0.0
 10
-8.55506
 20
5.21999
 30
0.0
  0
SPLINE
  5
EC
330
1F
100
AcDbEntity
  8
Warstwa 1
100
AcDbSpline
210
0.0
220
0.0
230
1.0
 70
    11
 71
     3
 72
    16
 73
    12
 74
     0
 42
0.0000000001
 43
0.0000000001
 40
0.0
 40
0.0
 40
0.0
 40
0.0
 40
0.25
 40
0.25
 40
0.25
 40
0.25
 40
0.5
 40
0.5
 40
0.5
 40
0.5
 40
1.0
 40
1.0
 40
1.0
 40
1.0
 10
-8.55506
 20
10.87248
 30
0.0
 10
-8.55506
 20
10.87248
 30
0.0
 10
-8.50426
 20
10.54228
 30
0.0
 10
-8.50426
 20
10.54228
 30
0.0
 10
-8.50426
 20
10.54228
 30
0.0
 10
-8.50426
 20
10.54228
 30
0.0
 10
-8.60586
 20
10.54228
 30
0.0
 10
-8.60586
 20
10.54228
 30
0.0
 10
-8.60586
 20
10.54228
 30
0.0
 10
-8.60586
 20
10.54228
 30
0.0
 10
-8.55506
 20
10.87248
 30
0.0
 10
-8.55506
 20
10.87248
 30
0.0
  0
SPLINE
  5
ED
330
1F
100
AcDbEntity
  8
Warstwa 1
100
AcDbSpline
210
0.0
220
0.0
230
1.0
 70
    11
 71
     3
 72
    16
 73
    12
 74
     0
 42
0.0000000001
 43
0.0000000001
 40
0.0
 40
0.0
 40
0.0
 40
0.0
 40
0.25
 40
0.25
 40
0.25
 40
0.25
 40
0.5
 40
0.5
 40
0.5
 40
0.5
 40
1.0
 40
1.0
 40
1.0
 40
1.0
 10
0.91358
 20
-4.75434
 30
0.0
 10
0.91358
 20
-4.75434
 30
0.0
 10
0.86278
 20
-4.42414
 30
0.0
 10
0.86278
 20
-4.42414
 30
0.0
 10
0.86278
 20
-4.42414
 30
0.0
 10
0.86278
 20
-4.42414
 30
0.0
 10
0.96434
 20
-4.42414
 30
0.0
 10
0.96434
 20
-4.42414
 30
0.0
 10
0.96434
 20
-4.42414
 30
0.0
 10
0.96434
 20
-4.42414
 30
0.0
 10
0.91358
 20
-4.75434
 30
0.0
 10
0.91358
 20
-4.75434
 30
0.0
  0
SPLINE
  5
EE
330
1F
100
AcDbEntity
  8
Warstwa 1
100
AcDbSpline
210
0.0
220
0.0
230
1.0
 70
    11
 71
     3
 72
    16
 73
    12
 74
     0
 42
0.0000000001
 43
0.0000000001
 40
0.0
 40
0.0
 40
0.0
 40
0.0
 40
0.25
 40
0.25
 40
0.25
 40
0.25
 40
0.5
 40
0.5
 40
0.5
 40
0.5
 40
1.0
 40
1.0
 40
1.0
 40
1.0
 10
0.91358
 20
2.69219
 30
0.0
 10
0.91358
 20
2.69219
 30
0.0
 10
0.96434
 20
2.36199
 30
0.0
 10
0.96434
 20
2.36199
 30
0.0
 10
0.96434
 20
2.36199
 30
0.0
 10
0.96434
 20
2.36199
 30
0.0
 10
0.86278
 20
2.36199
 30
0.0
 10
0.86278
 20
2.36199
 30
0.0
 10
0.86278
 20
2.36199
 30
0.0
 10
0.86278
 20
2.36199
 30
0.0
 10
0.91358
 20
2.69219
 30
0.0
 10
0.91358
 20
2.69219
 30
0.0
  0
SPLINE
  5
EF
330
1F
100
AcDbEntity
  8
Warstwa 1
100
AcDbSpline
210
0.0
220
0.0
230
1.0
 70
    11
 71
     3
 72
    16
 73
    12
 74
     0
 42
0.0000000001
 43
0.0000000001
 40
0.0
 40
0.0
 40
0.0
 40
0.0
 40
0.25
 40
0.25
 40
0.25
 40
0.25
 40
0.5
 40
0.5
 40
0.5
 40
0.5
 40
1.0
 40
1.0
 40
1.0
 40
1.0
 10
-7.56909
 20
9.6425
 30
0.0
 10
-7.56909
 20
9.6425
 30
0.0
 10
-7.51829
 20
9.3123
 30
0.0
 10
-7.51829
 20
9.3123
 30
0.0
 10
-7.51829
 20
9.3123
 30
0.0
 10
-7.51829
 20
9.3123
 30
0.0
 10
-7.61989
 20
9.3123
 30
0.0
 10
-7.61989
 20
9.3123
 30
0.0
 10
-7.61989
 20
9.3123
 30
0.0
 10
-7.61989
 20
9.3123
 30
0.0
 10
-7.56909
 20
9.6425
 30
0.0
 10
-7.56909
 20
9.6425
 30
0.0
  0
SPLINE
  5
F0
330
1F
100
AcDbEntity
  8
Warstwa 1
100
AcDbSpline
210
0.0
220
0.0
230
1.0
 70
    11
 71
     3
 72
    16
 73
    12
 74
     0
 42
0.0000000001
 43
0.0000000001
 40
0.0
 40
0.0
 40
0.0
 40
0.0
 40
0.25
 40
0.25
 40
0.25
 40
0.25
 40
0.5
 40
0.5
 40
0.5
 40
0.5
 40
1.0
 40
1.0
 40
1.0
 40
1.0
 10
-7.56909
 20
6.83749
 30
0.0
 10
-7.56909
 20
6.83749
 30
0.0
 10
-7.61989
 20
7.16769
 30
0.0
 10
-7.61989
 20
7.16769
 30
0.0
 10
-7.61989
 20
7.16769
 30
0.0
 10
-7.61989
 20
7.16769
 30
0.0
 10
-7.51829
 20
7.16769
 30
0.0
 10
-7.51829
 20
7.16769
 30
0.0
 10
-7.51829
 20
7.16769
 30
0.0
 10
-7.51829
 20
7.16769
 30
0.0
 10
-7.56909
 20
6.83749
 30
0.0
 10
-7.56909
 20
6.83749
 30
0.0
  0
SPLINE
  5
F1
330
1F
100
AcDbEntity
  8
Warstwa 1
100
AcDbSpline
210
0.0
220
0.0
230
1.0
 70
    11
 71
     3
 72
    16
 73
    12
 74
     0
 42
0.0000000001
 43
0.0000000001
 40
0.0
 40
0.0
 40
0.0
 40
0.0
 40
0.25
 40
0.25
 40
0.25
 40
0.25
 40
0.5
 40
0.5
 40
0.5
 40
0.5
 40
1.0
 40
1.0
 40
1.0
 40
1.0
 10
1.05354
 20
7.63748
 30
0.0
 10
1.05354
 20
7.63748
 30
0.0
 10
1.10437
 20
7.30728
 30
0.0
 10
1.10437
 20
7.30728
 30
0.0
 10
1.10437
 20
7.30728
 30
0.0
 10
1.10437
 20
7.30728
 30
0.0
 10
1.00277
 20
7.30728
 30
0.0
 10
1.00277
 20
7.30728
 30
0.0
 10
1.00277
 20
7.30728
 30
0.0
 10
1.00277
 20
7.30728
 30
0.0
 10
1.05354
 20
7.63748
 30
0.0
 10
1.05354
 20
7.63748
 30
0.0
  0
SPLINE
  5
F2
330
1F
100
AcDbEntity
  8
Warstwa 1
100
AcDbSpline
210
0.0
220
0.0
230
1.0
 70
    11
 71
     3
 72
    16
 73
    12
 74
     0
 42
0.0000000001
 43
0.0000000001
 40
0.0
 40
0.0
 40
0.0
 40
0.0
 40
0.25
 40
0.25
 40
0.25
 40
0.25
 40
0.5
 40
0.5
 40
0.5
 40
0.5
 40
1.0
 40
1.0
 40
1.0
 40
1.0
 10
1.05354
 20
6.03749
 30
0.0
 10
1.05354
 20
6.03749
 30
0.0
 10
1.00277
 20
6.36769
 30
0.0
 10
1.00277
 20
6.36769
 30
0.0
 10
1.00277
 20
6.36769
 30
0.0
 10
1.00277
 20
6.36769
 30
0.0
 10
1.10437
 20
6.36769
 30
0.0
 10
1.10437
 20
6.36769
 30
0.0
 10
1.10437
 20
6.36769
 30
0.0
 10
1.10437
 20
6.36769
 30
0.0
 10
1.05354
 20
6.03749
 30
0.0
 10
1.05354
 20
6.03749
 30
0.0
  0
SPLINE
  5
F3
330
1F
100
AcDbEntity
  8
Warstwa 1
100
AcDbSpline
210
0.0
220
0.0
230
1.0
 70
    11
 71
     3
 72
    16
 73
    12
 74
     0
 42
0.0000000001
 43
0.0000000001
 40
0.0
 40
0.0
 40
0.0
 40
0.0
 40
0.25
 40
0.25
 40
0.25
 40
0.25
 40
0.5
 40
0.5
 40
0.5
 40
0.5
 40
1.0
 40
1.0
 40
1.0
 40
1.0
 10
3.81208
 20
-4.76935
 30
0.0
 10
3.81208
 20
-4.76935
 30
0.0
 10
3.86287
 20
-5.09955
 30
0.0
 10
3.86287
 20
-5.09955
 30
0.0
 10
3.86287
 20
-5.09955
 30
0.0
 10
3.86287
 20
-5.09955
 30
0.0
 10
3.76128
 20
-5.09955
 30
0.0
 10
3.76128
 20
-5.09955
 30
0.0
 10
3.76128
 20
-5.09955
 30
0.0
 10
3.76128
 20
-5.09955
 30
0.0
 10
3.81208
 20
-4.76935
 30
0.0
 10
3.81208
 20
-4.76935
 30
0.0
  0
SPLINE
  5
F4
330
1F
100
AcDbEntity
  8
Warstwa 1
100
AcDbSpline
210
0.0
220
0.0
230
1.0
 70
    11
 71
     3
 72
    16
 73
    12
 74
     0
 42
0.0000000001
 43
0.0000000001
 40
0.0
 40
0.0
 40
0.0
 40
0.0
 40
0.25
 40
0.25
 40
0.25
 40
0.25
 40
0.5
 40
0.5
 40
0.5
 40
0.5
 40
1.0
 40
1.0
 40
1.0
 40
1.0
 10
3.81208
 20
-7.11934
 30
0.0
 10
3.81208
 20
-7.11934
 30
0.0
 10
3.76128
 20
-6.78914
 30
0.0
 10
3.76128
 20
-6.78914
 30
0.0
 10
3.76128
 20
-6.78914
 30
0.0
 10
3.76128
 20
-6.78914
 30
0.0
 10
3.86287
 20
-6.78914
 30
0.0
 10
3.86287
 20
-6.78914
 30
0.0
 10
3.86287
 20
-6.78914
 30
0.0
 10
3.86287
 20
-6.78914
 30
0.0
 10
3.81208
 20
-7.11934
 30
0.0
 10
3.81208
 20
-7.11934
 30
0.0
  0
SPLINE
  5
F5
330
1F
100
AcDbEntity
  8
Warstwa 1
100
AcDbSpline
210
0.0
220
0.0
230
1.0
 70
    11
 71
     3
 72
    16
 73
    12
 74
     0
 42
0.0000000001
 43
0.0000000001
 40
0.0
 40
0.0
 40
0.0
 40
0.0
 40
0.25
 40
0.25
 40
0.25
 40
0.25
 40
0.5
 40
0.5
 40
0.5
 40
0.5
 40
1.0
 40
1.0
 40
1.0
 40
1.0
 10
-7.56909
 20
10.8725
 30
0.0
 10
-7.56909
 20
10.8725
 30
0.0
 10
-7.51829
 20
10.5423
 30
0.0
 10
-7.51829
 20
10.5423
 30
0.0
 10
-7.51829
 20
10.5423
 30
0.0
 10
-7.51829
 20
10.5423
 30
0.0
 10
-7.61989
 20
10.5423
 30
0.0
 10
-7.61989
 20
10.5423
 30
0.0
 10
-7.61989
 20
10.5423
 30
0.0
 10
-7.61989
 20
10.5423
 30
0.0
 10
-7.56909
 20
10.8725
 30
0.0
 10
-7.56909
 20
10.8725
 30
0.0
  0
SPLINE
  5
F6
330
1F
100
AcDbEntity
  8
Warstwa 1
100
AcDbSpline
210
0.0
220
0.0
230
1.0
 70
    11
 71
     3
 72
    16
 73
    12
 74
     0
 42
0.0000000001
 43
0.0000000001
 40
0.0
 40
0.0
 40
0.0
 40
0.0
 40
0.25
 40
0.25
 40
0.25
 40
0.25
 40
0.5
 40
0.5
 40
0.5
 40
0.5
 40
1.0
 40
1.0
 40
1.0
 40
1.0
 10
-7.56909
 20
9.6425
 30
0.0
 10
-7.56909
 20
9.6425
 30
0.0
 10
-7.61989
 20
9.9727
 30
0.0
 10
-7.61989
 20
9.9727
 30
0.0
 10
-7.61989
 20
9.9727
 30
0.0
 10
-7.61989
 20
9.9727
 30
0.0
 10
-7.51829
 20
9.9727
 30
0.0
 10
-7.51829
 20
9.9727
 30
0.0
 10
-7.51829
 20
9.9727
 30
0.0
 10
-7.51829
 20
9.9727
 30
0.0
 10
-7.56909
 20
9.6425
 30
0.0
 10
-7.56909
 20
9.6425
 30
0.0
  0
SPLINE
  5
F7
330
1F
100
AcDbEntity
  8
Warstwa 1
100
AcDbSpline
210
0.0
220
0.0
230
1.0
 70
    11
 71
     3
 72
    16
 73
    12
 74
     0
 42
0.0000000001
 43
0.0000000001
 40
0.0
 40
0.0
 40
0.0
 40
0.0
 40
0.25
 40
0.25
 40
0.25
 40
0.25
 40
0.5
 40
0.5
 40
0.5
 40
0.5
 40
1.0
 40
1.0
 40
1.0
 40
1.0
 10
-6.16976
 20
-12.61574
 30
0.0
 10
-6.16976
 20
-12.61574
 30
0.0
 10
-5.83956
 20
-12.56494
 30
0.0
 10
-5.83956
 20
-12.56494
 30
0.0
 10
-5.83956
 20
-12.56494
 30
0.0
 10
-5.83956
 20
-12.56494
 30
0.0
 10
-5.83956
 20
-12.66654
 30
0.0
 10
-5.83956
 20
-12.66654
 30
0.0
 10
-5.83956
 20
-12.66654
 30
0.0
 10
-5.83956
 20
-12.66654
 30
0.0
 10
-6.16976
 20
-12.61574
 30
0.0
 10
-6.16976
 20
-12.61574
 30
0.0
  0
SPLINE
  5
F8
330
1F
100
AcDbEntity
  8
Warstwa 1
100
AcDbSpline
210
0.0
220
0.0
230
1.0
 70
    11
 71
     3
 72
    16
 73
    12
 74
     0
 42
0.0000000001
 43
0.0000000001
 40
0.0
 40
0.0
 40
0.0
 40
0.0
 40
0.25
 40
0.25
 40
0.25
 40
0.25
 40
0.5
 40
0.5
 40
0.5
 40
0.5
 40
1.0
 40
1.0
 40
1.0
 40
1.0
 10
-0.96975
 20
-12.61574
 30
0.0
 10
-0.96975
 20
-12.61574
 30
0.0
 10
-1.29995
 20
-12.66654
 30
0.0
 10
-1.29995
 20
-12.66654
 30
0.0
 10
-1.29995
 20
-12.66654
 30
0.0
 10
-1.29995
 20
-12.66654
 30
0.0
 10
-1.29995
 20
-12.56494
 30
0.0
 10
-1.29995
 20
-12.56494
 30
0.0
 10
-1.29995
 20
-12.56494
 30
0.0
 10
-1.29995
 20
-12.56494
 30
0.0
 10
-0.96975
 20
-12.61574
 30
0.0
 10
-0.96975
 20
-12.61574
 30
0.0
  0
SPLINE
  5
F9
330
1F
100
AcDbEntity
  8
Warstwa 1
100
AcDbSpline
210
0.0
220
0.0
230
1.0
 70
    11
 71
     3
 72
    84
 73
    80
 74
     0
 42
0.0000000001
 43
0.0000000001
 40
0.0
 40
0.0
 40
0.0
 40
0.0
 40
0.0476190476190476
 40
0.0476190476190476
 40
0.0476190476190476
 40
0.0476190476190476
 40
0.0952380952380952
 40
0.0952380952380952
 40
0.0952380952380952
 40
0.0952380952380952
 40
0.1428571428571428
 40
0.1428571428571428
 40
0.1428571428571428
 40
0.1428571428571428
 40
0.1904761904761905
 40
0.1904761904761905
 40
0.1904761904761905
 40
0.1904761904761905
 40
0.2380952380952381
 40
0.2380952380952381
 40
0.2380952380952381
 40
0.2380952380952381
 40
0.2857142857142857
 40
0.2857142857142857
 40
0.2857142857142857
 40
0.2857142857142857
 40
0.3333333333333333
 40
0.3333333333333333
 40
0.3333333333333333
 40
0.3333333333333333
 40
0.3809523809523809
 40
0.3809523809523809
 40
0.3809523809523809
 40
0.3809523809523809
 40
0.4285714285714285
 40
0.4285714285714285
 40
0.4285714285714285
 40
0.4285714285714285
 40
0.4761904761904762
 40
0.4761904761904762
 40
0.4761904761904762
 40
0.4761904761904762
 40
0.5238095238095238
 40
0.5238095238095238
 40
0.5238095238095238
 40
0.5238095238095238
 40
0.5714285714285714
 40
0.5714285714285714
 40
0.5714285714285714
 40
0.5714285714285714
 40
0.6190476190476191
 40
0.6190476190476191
 40
0.6190476190476191
 40
0.6190476190476191
 40
0.6666666666666666
 40
0.6666666666666666
 40
0.6666666666666666
 40
0.6666666666666666
 40
0.7142857142857143
 40
0.7142857142857143
 40
0.7142857142857143
 40
0.7142857142857143
 40
0.7619047619047619
 40
0.7619047619047619
 40
0.7619047619047619
 40
0.7619047619047619
 40
0.8095238095238095
 40
0.8095238095238095
 40
0.8095238095238095
 40
0.8095238095238095
 40
0.8571428571428571
 40
0.8571428571428571
 40
0.8571428571428571
 40
0.8571428571428571
 40
0.9047619047619048
 40
0.9047619047619048
 40
0.9047619047619048
 40
0.9047619047619048
 40
1.0
 40
1.0
 40
1.0
 40
1.0
 10
-7.07857
 20
1.75015
 30
0.0
 10
-7.07857
 20
1.75015
 30
0.0
 10
-7.08143
 20
1.7461
 30
0.0
 10
-7.08143
 20
1.7461
 30
0.0
 10
-7.08143
 20
1.7461
 30
0.0
 10
-7.08143
 20
1.7461
 30
0.0
 10
-7.08143
 20
1.7461
 30
0.0
 10
-7.08738
 20
1.73768
 30
0.0
 10
-7.08738
 20
1.73768
 30
0.0
 10
-7.08738
 20
1.73768
 30
0.0
 10
-7.11235
 20
1.71649
 30
0.0
 10
-7.11235
 20
1.71649
 30
0.0
 10
-7.11235
 20
1.71649
 30
0.0
 10
-7.11235
 20
1.71649
 30
0.0
 10
-7.17009
 20
1.65896
 30
0.0
 10
-7.17009
 20
1.65896
 30
0.0
 10
-7.17009
 20
1.65896
 30
0.0
 10
-7.19439
 20
1.6176
 30
0.0
 10
-7.18261
 20
1.56928
 30
0.0
 10
-7.18261
 20
1.45984
 30
0.0
 10
-7.18261
 20
1.45984
 30
0.0
 10
-7.18261
 20
1.45984
 30
0.0
 10
-7.18261
 20
-4.71158
 30
0.0
 10
-7.18261
 20
-4.71158
 30
0.0
 10
-7.18261
 20
-4.71158
 30
0.0
 10
-7.17666
 20
-4.76209
 30
0.0
 10
-7.18856
 20
-4.72842
 30
0.0
 10
-7.17071
 20
-4.75367
 30
0.0
 10
-7.17071
 20
-4.75367
 30
0.0
 10
-7.135
 20
-4.78735
 30
0.0
 10
-5.54593
 20
-4.77051
 30
0.0
 10
-5.37333
 20
-4.77051
 30
0.0
 10
-5.37333
 20
-4.77051
 30
0.0
 10
-5.37333
 20
-4.77051
 30
0.0
 10
-0.40376
 20
-4.77051
 30
0.0
 10
-0.40376
 20
-4.77051
 30
0.0
 10
-0.40376
 20
-4.77051
 30
0.0
 10
-0.32044
 20
-4.77051
 30
0.0
 10
-0.00501
 20
-4.79577
 30
0.0
 10
0.03665
 20
-4.77051
 30
0.0
 10
0.03665
 20
-4.77051
 30
0.0
 10
0.05451
 20
-4.74526
 30
0.0
 10
0.04261
 20
-0.123
 30
0.0
 10
0.04261
 20
0.14642
 30
0.0
 10
0.04261
 20
0.14642
 30
0.0
 10
0.04261
 20
0.14642
 30
0.0
 10
0.04261
 20
1.39249
 30
0.0
 10
0.04261
 20
1.39249
 30
0.0
 10
0.04261
 20
1.39249
 30
0.0
 10
0.04261
 20
1.45984
 30
0.0
 10
0.04261
 20
1.5272
 30
0.0
 10
0.04261
 20
1.59455
 30
0.0
 10
0.04261
 20
1.59455
 30
0.0
 10
0.03665
 20
1.66191
 30
0.0
 10
0.04261
 20
1.62823
 30
0.0
 10
-0.00501
 20
1.67875
 30
0.0
 10
-0.00501
 20
1.67875
 30
0.0
 10
-0.03578
 20
1.71502
 30
0.0
 10
-0.03119
 20
1.7013
 30
0.0
 10
-0.03315
 20
1.71834
 30
0.0
 10
-0.03315
 20
1.71834
 30
0.0
 10
-0.03315
 20
1.71834
 30
0.0
 10
-1.97289
 20
3.65116
 30
0.0
 10
-1.97289
 20
3.65116
 30
0.0
 10
-1.97289
 20
3.65116
 30
0.0
 10
-2.7687
 20
3.65549
 30
0.0
 10
-3.601
 20
3.64889
 30
0.0
 10
-4.39132
 20
3.64889
 30
0.0
 10
-4.39132
 20
3.64889
 30
0.0
 10
-4.52969
 20
3.64889
 30
0.0
 10
-4.89909
 20
3.64517
 30
0.0
 10
-5.17519
 20
3.64515
 30
0.0
 10
-5.17519
 20
3.64515
 30
0.0
 10
-5.17519
 20
3.64515
 30
0.0
 10
-5.34108
 20
3.48143
 30
0.0
 10
-5.34108
 20
3.48143
 30
0.0
 10
-5.34108
 20
3.48143
 30
0.0
 10
-5.34108
 20
3.48143
 30
0.0
 10
-7.07857
 20
1.75015
 30
0.0
 10
-7.07857
 20
1.75015
 30
0.0
  0
SPLINE
  5
FA
330
1F
100
AcDbEntity
  8
Warstwa 1
100
AcDbSpline
210
0.0
220
0.0
230
1.0
 70
    11
 71
     3
 72
   136
 73
   132
 74
     0
 42
0.0000000001
 43
0.0000000001
 40
0.0
 40
0.0
 40
0.0
 40
0.0
 40
0.0294117647058824
 40
0.0294117647058824
 40
0.0294117647058824
 40
0.0294117647058824
 40
0.0588235294117647
 40
0.0588235294117647
 40
0.0588235294117647
 40
0.0588235294117647
 40
0.0882352941176471
 40
0.0882352941176471
 40
0.0882352941176471
 40
0.0882352941176471
 40
0.1176470588235294
 40
0.1176470588235294
 40
0.1176470588235294
 40
0.1176470588235294
 40
0.1470588235294118
 40
0.1470588235294118
 40
0.1470588235294118
 40
0.1470588235294118
 40
0.1764705882352941
 40
0.1764705882352941
 40
0.1764705882352941
 40
0.1764705882352941
 40
0.2058823529411765
 40
0.2058823529411765
 40
0.2058823529411765
 40
0.2058823529411765
 40
0.2352941176470588
 40
0.2352941176470588
 40
0.2352941176470588
 40
0.2352941176470588
 40
0.2647058823529412
 40
0.2647058823529412
 40
0.2647058823529412
 40
0.2647058823529412
 40
0.2941176470588235
 40
0.2941176470588235
 40
0.2941176470588235
 40
0.2941176470588235
 40
0.3235294117647059
 40
0.3235294117647059
 40
0.3235294117647059
 40
0.3235294117647059
 40
0.3529411764705883
 40
0.3529411764705883
 40
0.3529411764705883
 40
0.3529411764705883
 40
0.3823529411764706
 40
0.3823529411764706
 40
0.3823529411764706
 40
0.3823529411764706
 40
0.4117647058823529
 40
0.4117647058823529
 40
0.4117647058823529
 40
0.4117647058823529
 40
0.4411764705882353
 40
0.4411764705882353
 40
0.4411764705882353
 40
0.4411764705882353
 40
0.4705882352941176
 40
0.4705882352941176
 40
0.4705882352941176
 40
0.4705882352941176
 40
0.5
 40
0.5
 40
0.5
 40
0.5
 40
0.5294117647058824
 40
0.5294117647058824
 40
0.5294117647058824
 40
0.5294117647058824
 40
0.5588235294117647
 40
0.5588235294117647
 40
0.5588235294117647
 40
0.5588235294117647
 40
0.5882352941176471
 40
0.5882352941176471
 40
0.5882352941176471
 40
0.5882352941176471
 40
0.6176470588235294
 40
0.6176470588235294
 40
0.6176470588235294
 40
0.6176470588235294
 40
0.6470588235294118
 40
0.6470588235294118
 40
0.6470588235294118
 40
0.6470588235294118
 40
0.6764705882352942
 40
0.6764705882352942
 40
0.6764705882352942
 40
0.6764705882352942
 40
0.7058823529411765
 40
0.7058823529411765
 40
0.7058823529411765
 40
0.7058823529411765
 40
0.7352941176470589
 40
0.7352941176470589
 40
0.7352941176470589
 40
0.7352941176470589
 40
0.7647058823529411
 40
0.7647058823529411
 40
0.7647058823529411
 40
0.7647058823529411
 40
0.7941176470588235
 40
0.7941176470588235
 40
0.7941176470588235
 40
0.7941176470588235
 40
0.8235294117647058
 40
0.8235294117647058
 40
0.8235294117647058
 40
0.8235294117647058
 40
0.8529411764705882
 40
0.8529411764705882
 40
0.8529411764705882
 40
0.8529411764705882
 40
0.8823529411764706
 40
0.8823529411764706
 40
0.8823529411764706
 40
0.8823529411764706
 40
0.9117647058823529
 40
0.9117647058823529
 40
0.9117647058823529
 40
0.9117647058823529
 40
0.9411764705882353
 40
0.9411764705882353
 40
0.9411764705882353
 40
0.9411764705882353
 40
1.0
 40
1.0
 40
1.0
 40
1.0
 10
3.73853
 20
3.59837
 30
0.0
 10
3.73853
 20
3.59837
 30
0.0
 10
3.25051
 20
3.58995
 30
0.0
 10
3.25051
 20
3.58995
 30
0.0
 10
3.25051
 20
3.58995
 30
0.0
 10
3.20884
 20
3.60679
 30
0.0
 10
3.2386
 20
3.59837
 30
0.0
 10
3.2148
 20
3.64889
 30
0.0
 10
3.2148
 20
3.64889
 30
0.0
 10
3.11957
 20
3.65731
 30
0.0
 10
3.10172
 20
3.65731
 30
0.0
 10
3.10172
 20
3.56469
 30
0.0
 10
3.10172
 20
3.56469
 30
0.0
 10
3.10172
 20
3.56469
 30
0.0
 10
3.10172
 20
0.57581
 30
0.0
 10
3.10172
 20
0.57581
 30
0.0
 10
3.10172
 20
0.57581
 30
0.0
 10
3.10172
 20
0.57581
 30
0.0
 10
3.16718
 20
0.55897
 30
0.0
 10
3.16718
 20
0.55897
 30
0.0
 10
3.16718
 20
0.55897
 30
0.0
 10
3.16718
 20
0.49161
 30
0.0
 10
3.16123
 20
0.52529
 30
0.0
 10
3.11362
 20
0.49161
 30
0.0
 10
3.11362
 20
0.49161
 30
0.0
 10
3.11362
 20
0.49161
 30
0.0
 10
3.11362
 20
-4.69474
 30
0.0
 10
3.11362
 20
-4.69474
 30
0.0
 10
3.11362
 20
-4.69474
 30
0.0
 10
3.11362
 20
-4.74526
 30
0.0
 10
3.12552
 20
-4.75367
 30
0.0
 10
3.17314
 20
-4.75367
 30
0.0
 10
3.17314
 20
-4.75367
 30
0.0
 10
3.66712
 20
-4.75367
 30
0.0
 10
3.6076
 20
-4.78735
 30
0.0
 10
3.64331
 20
-4.66948
 30
0.0
 10
3.64331
 20
-4.66948
 30
0.0
 10
3.69092
 20
-4.73684
 30
0.0
 10
3.63141
 20
-4.74526
 30
0.0
 10
3.69687
 20
-4.77051
 30
0.0
 10
3.69687
 20
-4.77051
 30
0.0
 10
3.76234
 20
-4.80419
 30
0.0
 10
4.70269
 20
-4.78735
 30
0.0
 10
4.80387
 20
-4.78735
 30
0.0
 10
4.80387
 20
-4.78735
 30
0.0
 10
4.80387
 20
-4.78735
 30
0.0
 10
8.01772
 20
-4.78735
 30
0.0
 10
8.01772
 20
-4.78735
 30
0.0
 10
8.01772
 20
-4.78735
 30
0.0
 10
8.12485
 20
-4.78735
 30
0.0
 10
8.59502
 20
-4.81261
 30
0.0
 10
8.63668
 20
-4.75367
 30
0.0
 10
8.63668
 20
-4.75367
 30
0.0
 10
8.65454
 20
-4.73684
 30
0.0
 10
8.64264
 20
-4.75367
 30
0.0
 10
8.64859
 20
-4.71158
 30
0.0
 10
8.64859
 20
-4.71158
 30
0.0
 10
8.66049
 20
-4.6358
 30
0.0
 10
8.64859
 20
-4.56003
 30
0.0
 10
8.64859
 20
-4.52635
 30
0.0
 10
8.64859
 20
-4.52635
 30
0.0
 10
8.64859
 20
-4.52635
 30
0.0
 10
8.65454
 20
-4.50109
 30
0.0
 10
8.65454
 20
-4.50109
 30
0.0
 10
8.65454
 20
-4.50109
 30
0.0
 10
8.66644
 20
-4.46741
 30
0.0
 10
8.72596
 20
-4.50109
 30
0.0
 10
8.80928
 20
-4.459
 30
0.0
 10
8.80928
 20
-4.459
 30
0.0
 10
8.82713
 20
-4.17274
 30
0.0
 10
8.80928
 20
-3.8107
 30
0.0
 10
8.80928
 20
-3.51602
 30
0.0
 10
8.80928
 20
-3.51602
 30
0.0
 10
8.80928
 20
-3.51602
 30
0.0
 10
8.80928
 20
3.05111
 30
0.0
 10
8.80928
 20
3.05111
 30
0.0
 10
8.80928
 20
3.05111
 30
0.0
 10
8.80928
 20
3.16898
 30
0.0
 10
8.81523
 20
3.16898
 30
0.0
 10
8.74381
 20
3.1774
 30
0.0
 10
8.74381
 20
3.1774
 30
0.0
 10
8.64264
 20
3.19424
 30
0.0
 10
8.71405
 20
3.18582
 30
0.0
 10
8.66644
 20
3.30369
 30
0.0
 10
8.66644
 20
3.30369
 30
0.0
 10
8.65655
 20
3.32819
 30
0.0
 10
8.65077
 20
3.33813
 30
0.0
 10
8.64311
 20
3.34261
 30
0.0
 10
8.64311
 20
3.34261
 30
0.0
 10
8.64311
 20
3.34261
 30
0.0
 10
8.64311
 20
3.57928
 30
0.0
 10
8.64311
 20
3.57928
 30
0.0
 10
8.64311
 20
3.57928
 30
0.0
 10
8.64311
 20
3.57928
 30
0.0
 10
8.55934
 20
3.57928
 30
0.0
 10
8.55934
 20
3.57928
 30
0.0
 10
8.55934
 20
3.57928
 30
0.0
 10
8.55969
 20
3.68909
 30
0.0
 10
8.56285
 20
3.66913
 30
0.0
 10
8.50575
 20
3.74992
 30
0.0
 10
8.50575
 20
3.74992
 30
0.0
 10
8.50575
 20
3.74992
 30
0.0
 10
6.62505
 20
3.74992
 30
0.0
 10
6.62505
 20
3.74992
 30
0.0
 10
6.62505
 20
3.74992
 30
0.0
 10
6.57149
 20
3.70782
 30
0.0
 10
6.54768
 20
3.66572
 30
0.0
 10
6.55363
 20
3.58995
 30
0.0
 10
6.55363
 20
3.58995
 30
0.0
 10
6.55363
 20
3.58995
 30
0.0
 10
5.79778
 20
3.58995
 30
0.0
 10
5.79778
 20
3.58995
 30
0.0
 10
5.79778
 20
3.58995
 30
0.0
 10
5.72636
 20
3.58995
 30
0.0
 10
5.75612
 20
3.59837
 30
0.0
 10
5.74422
 20
3.65731
 30
0.0
 10
5.74422
 20
3.65731
 30
0.0
 10
5.73827
 20
3.69098
 30
0.0
 10
5.71446
 20
3.71624
 30
0.0
 10
5.6966
 20
3.74992
 30
0.0
 10
5.6966
 20
3.74992
 30
0.0
 10
5.6966
 20
3.74992
 30
0.0
 10
3.86352
 20
3.74992
 30
0.0
 10
3.86352
 20
3.74992
 30
0.0
 10
3.86352
 20
3.74992
 30
0.0
 10
3.82781
 20
3.74992
 30
0.0
 10
3.83376
 20
3.74992
 30
0.0
 10
3.804
 20
3.7415
 30
0.0
 10
3.804
 20
3.7415
 30
0.0
 10
3.75044
 20
3.70782
 30
0.0
 10
3.73853
 20
3.66572
 30
0.0
 10
3.73853
 20
3.59837
 30
0.0
  0
SPLINE
  5
FB
330
1F
100
AcDbEntity
  8
Warstwa 1
100
AcDbSpline
210
0.0
220
0.0
230
1.0
 70
    11
 71
     3
 72
    28
 73
    24
 74
     0
 42
0.0000000001
 43
0.0000000001
 40
0.0
 40
0.0
 40
0.0
 40
0.0
 40
0.1428571428571428
 40
0.1428571428571428
 40
0.1428571428571428
 40
0.1428571428571428
 40
0.2857142857142857
 40
0.2857142857142857
 40
0.2857142857142857
 40
0.2857142857142857
 40
0.4285714285714285
 40
0.4285714285714285
 40
0.4285714285714285
 40
0.4285714285714285
 40
0.5714285714285714
 40
0.5714285714285714
 40
0.5714285714285714
 40
0.5714285714285714
 40
0.7142857142857143
 40
0.7142857142857143
 40
0.7142857142857143
 40
0.7142857142857143
 40
1.0
 40
1.0
 40
1.0
 40
1.0
 10
3.14933
 20
-4.71158
 30
0.0
 10
3.14933
 20
-4.71158
 30
0.0
 10
3.58975
 20
-4.72
 30
0.0
 10
3.58975
 20
-4.72
 30
0.0
 10
3.58975
 20
-4.72
 30
0.0
 10
3.65521
 20
-4.3748
 30
0.0
 10
3.63736
 20
-4.46741
 30
0.0
 10
3.63736
 20
-4.10538
 30
0.0
 10
3.63736
 20
-4.10538
 30
0.0
 10
3.63736
 20
-4.10538
 30
0.0
 10
3.63736
 20
-0.84707
 30
0.0
 10
3.63736
 20
-0.84707
 30
0.0
 10
3.63736
 20
-0.84707
 30
0.0
 10
3.63736
 20
-0.40926
 30
0.0
 10
3.64331
 20
0.03696
 30
0.0
 10
3.63736
 20
0.46635
 30
0.0
 10
3.63736
 20
0.46635
 30
0.0
 10
3.63736
 20
0.46635
 30
0.0
 10
3.14933
 20
0.46635
 30
0.0
 10
3.14933
 20
0.46635
 30
0.0
 10
3.14933
 20
0.46635
 30
0.0
 10
3.14933
 20
0.46635
 30
0.0
 10
3.14933
 20
-4.71158
 30
0.0
 10
3.14933
 20
-4.71158
 30
0.0
  0
SPLINE
  5
FC
330
1F
100
AcDbEntity
  8
Warstwa 1
100
AcDbSpline
210
0.0
220
0.0
230
1.0
 70
    11
 71
     3
 72
    48
 73
    44
 74
     0
 42
0.0000000001
 43
0.0000000001
 40
0.0
 40
0.0
 40
0.0
 40
0.0
 40
0.0833333333333333
 40
0.0833333333333333
 40
0.0833333333333333
 40
0.0833333333333333
 40
0.1666666666666667
 40
0.1666666666666667
 40
0.1666666666666667
 40
0.1666666666666667
 40
0.25
 40
0.25
 40
0.25
 40
0.25
 40
0.3333333333333333
 40
0.3333333333333333
 40
0.3333333333333333
 40
0.3333333333333333
 40
0.4166666666666667
 40
0.4166666666666667
 40
0.4166666666666667
 40
0.4166666666666667
 40
0.5
 40
0.5
 40
0.5
 40
0.5
 40
0.5833333333333334
 40
0.5833333333333334
 40
0.5833333333333334
 40
0.5833333333333334
 40
0.6666666666666666
 40
0.6666666666666666
 40
0.6666666666666666
 40
0.6666666666666666
 40
0.75
 40
0.75
 40
0.75
 40
0.75
 40
0.8333333333333334
 40
0.8333333333333334
 40
0.8333333333333334
 40
0.8333333333333334
 40
1.0
 40
1.0
 40
1.0
 40
1.0
 10
8.6843
 20
-4.4169
 30
0.0
 10
8.6843
 20
-4.4169
 30
0.0
 10
8.76167
 20
-4.42532
 30
0.0
 10
8.76167
 20
-4.42532
 30
0.0
 10
8.76167
 20
-4.42532
 30
0.0
 10
8.76167
 20
-4.42532
 30
0.0
 10
8.76167
 20
3.05953
 30
0.0
 10
8.76167
 20
3.05953
 30
0.0
 10
8.76167
 20
3.05953
 30
0.0
 10
8.76167
 20
3.05953
 30
0.0
 10
8.67834
 20
3.05111
 30
0.0
 10
8.67834
 20
3.05111
 30
0.0
 10
8.67834
 20
3.05111
 30
0.0
 10
8.66049
 20
2.75643
 30
0.0
 10
8.67834
 20
2.41965
 30
0.0
 10
8.67834
 20
2.11656
 30
0.0
 10
8.67834
 20
2.11656
 30
0.0
 10
8.67834
 20
1.95659
 30
0.0
 10
8.67239
 20
1.80504
 30
0.0
 10
8.67834
 20
1.64507
 30
0.0
 10
8.67834
 20
1.64507
 30
0.0
 10
8.67834
 20
1.57771
 30
0.0
 10
8.67834
 20
1.4851
 30
0.0
 10
8.6843
 20
1.42616
 30
0.0
 10
8.6843
 20
1.42616
 30
0.0
 10
8.69025
 20
1.37565
 30
0.0
 10
8.7081
 20
1.37565
 30
0.0
 10
8.6962
 20
1.35039
 30
0.0
 10
8.6962
 20
1.35039
 30
0.0
 10
8.67834
 20
1.31671
 30
0.0
 10
8.67834
 20
1.33355
 30
0.0
 10
8.67834
 20
1.24936
 30
0.0
 10
8.67834
 20
1.24936
 30
0.0
 10
8.69025
 20
-0.00513
 30
0.0
 10
8.67239
 20
-1.27646
 30
0.0
 10
8.67834
 20
-2.53095
 30
0.0
 10
8.67834
 20
-2.53095
 30
0.0
 10
8.67834
 20
-2.53095
 30
0.0
 10
8.67239
 20
-4.29903
 30
0.0
 10
8.67239
 20
-4.29903
 30
0.0
 10
8.67239
 20
-4.29903
 30
0.0
 10
8.67239
 20
-4.3327
 30
0.0
 10
8.67239
 20
-4.38322
 30
0.0
 10
8.6843
 20
-4.4169
 30
0.0
  0
SPLINE
  5
FD
330
1F
100
AcDbEntity
  8
Warstwa 1
100
AcDbSpline
210
0.0
220
0.0
230
1.0
 70
    11
 71
     3
 72
    28
 73
    24
 74
     0
 42
0.0000000001
 43
0.0000000001
 40
0.0
 40
0.0
 40
0.0
 40
0.0
 40
0.1428571428571428
 40
0.1428571428571428
 40
0.1428571428571428
 40
0.1428571428571428
 40
0.2857142857142857
 40
0.2857142857142857
 40
0.2857142857142857
 40
0.2857142857142857
 40
0.4285714285714285
 40
0.4285714285714285
 40
0.4285714285714285
 40
0.4285714285714285
 40
0.5714285714285714
 40
0.5714285714285714
 40
0.5714285714285714
 40
0.5714285714285714
 40
0.7142857142857143
 40
0.7142857142857143
 40
0.7142857142857143
 40
0.7142857142857143
 40
1.0
 40
1.0
 40
1.0
 40
1.0
 10
3.70283
 20
-4.72
 30
0.0
 10
3.74449
 20
-4.74526
 30
0.0
 10
3.78615
 20
-4.74526
 30
0.0
 10
3.82781
 20
-4.74526
 30
0.0
 10
3.82781
 20
-4.74526
 30
0.0
 10
3.82781
 20
-4.74526
 30
0.0
 10
8.46409
 20
-4.74526
 30
0.0
 10
8.46409
 20
-4.74526
 30
0.0
 10
8.46409
 20
-4.74526
 30
0.0
 10
8.5117
 20
-4.74526
 30
0.0
 10
8.55931
 20
-4.74526
 30
0.0
 10
8.60693
 20
-4.72
 30
0.0
 10
8.60693
 20
-4.72
 30
0.0
 10
8.60693
 20
-4.72
 30
0.0
 10
8.60693
 20
1.29145
 30
0.0
 10
8.60693
 20
1.29145
 30
0.0
 10
8.60693
 20
1.29145
 30
0.0
 10
8.60693
 20
1.29145
 30
0.0
 10
3.70283
 20
1.29145
 30
0.0
 10
3.70283
 20
1.29145
 30
0.0
 10
3.70283
 20
1.29145
 30
0.0
 10
3.70283
 20
1.29145
 30
0.0
 10
3.70283
 20
-4.72
 30
0.0
 10
3.70283
 20
-4.72
 30
0.0
  0
SPLINE
  5
FE
330
1F
100
AcDbEntity
  8
Warstwa 1
100
AcDbSpline
210
0.0
220
0.0
230
1.0
 70
    11
 71
     3
 72
    20
 73
    16
 74
     0
 42
0.0000000001
 43
0.0000000001
 40
0.0
 40
0.0
 40
0.0
 40
0.0
 40
0.2
 40
0.2
 40
0.2
 40
0.2
 40
0.4
 40
0.4
 40
0.4
 40
0.4
 40
0.6
 40
0.6
 40
0.6
 40
0.6
 40
1.0
 40
1.0
 40
1.0
 40
1.0
 10
3.69082
 20
1.32288
 30
0.0
 10
3.69082
 20
1.32288
 30
0.0
 10
8.61146
 20
1.32288
 30
0.0
 10
8.61146
 20
1.32288
 30
0.0
 10
8.61146
 20
1.32288
 30
0.0
 10
8.61146
 20
1.32288
 30
0.0
 10
8.61146
 20
1.52726
 30
0.0
 10
8.61146
 20
1.52726
 30
0.0
 10
8.61146
 20
1.52726
 30
0.0
 10
8.61146
 20
1.52726
 30
0.0
 10
3.69082
 20
1.52726
 30
0.0
 10
3.69082
 20
1.52726
 30
0.0
 10
3.69082
 20
1.52726
 30
0.0
 10
3.69082
 20
1.52726
 30
0.0
 10
3.69082
 20
1.32288
 30
0.0
 10
3.69082
 20
1.32288
 30
0.0
  0
SPLINE
  5
FF
330
1F
100
AcDbEntity
  8
Warstwa 1
100
AcDbSpline
210
0.0
220
0.0
230
1.0
 70
    11
 71
     3
 72
    20
 73
    16
 74
     0
 42
0.0000000001
 43
0.0000000001
 40
0.0
 40
0.0
 40
0.0
 40
0.0
 40
0.2
 40
0.2
 40
0.2
 40
0.2
 40
0.4
 40
0.4
 40
0.4
 40
0.4
 40
0.6
 40
0.6
 40
0.6
 40
0.6
 40
1.0
 40
1.0
 40
1.0
 40
1.0
 10
3.69082
 20
3.32014
 30
0.0
 10
3.69082
 20
3.32014
 30
0.0
 10
8.61146
 20
3.32014
 30
0.0
 10
8.61146
 20
3.32014
 30
0.0
 10
8.61146
 20
3.32014
 30
0.0
 10
8.61146
 20
3.32014
 30
0.0
 10
8.61146
 20
1.5594
 30
0.0
 10
8.61146
 20
1.5594
 30
0.0
 10
8.61146
 20
1.5594
 30
0.0
 10
8.61146
 20
1.5594
 30
0.0
 10
3.69082
 20
1.5594
 30
0.0
 10
3.69082
 20
1.5594
 30
0.0
 10
3.69082
 20
1.5594
 30
0.0
 10
3.69082
 20
1.5594
 30
0.0
 10
3.69082
 20
3.32014
 30
0.0
 10
3.69082
 20
3.32014
 30
0.0
  0
SPLINE
  5
100
330
1F
100
AcDbEntity
  8
Warstwa 1
100
AcDbSpline
210
0.0
220
0.0
230
1.0
 70
    11
 71
     3
 72
    20
 73
    16
 74
     0
 42
0.0000000001
 43
0.0000000001
 40
0.0
 40
0.0
 40
0.0
 40
0.0
 40
0.2
 40
0.2
 40
0.2
 40
0.2
 40
0.4
 40
0.4
 40
0.4
 40
0.4
 40
0.6
 40
0.6
 40
0.6
 40
0.6
 40
1.0
 40
1.0
 40
1.0
 40
1.0
 10
3.20347
 20
3.35288
 30
0.0
 10
3.20347
 20
3.35288
 30
0.0
 10
8.61146
 20
3.35288
 30
0.0
 10
8.61146
 20
3.35288
 30
0.0
 10
8.61146
 20
3.35288
 30
0.0
 10
8.61146
 20
3.35288
 30
0.0
 10
8.61146
 20
3.55726
 30
0.0
 10
8.61146
 20
3.55726
 30
0.0
 10
8.61146
 20
3.55726
 30
0.0
 10
8.61146
 20
3.55726
 30
0.0
 10
3.20347
 20
3.55726
 30
0.0
 10
3.20347
 20
3.55726
 30
0.0
 10
3.20347
 20
3.55726
 30
0.0
 10
3.20347
 20
3.55726
 30
0.0
 10
3.20347
 20
3.35288
 30
0.0
 10
3.20347
 20
3.35288
 30
0.0
  0
SPLINE
  5
101
330
1F
100
AcDbEntity
  8
Warstwa 1
100
AcDbSpline
210
0.0
220
0.0
230
1.0
 70
    11
 71
     3
 72
    40
 73
    36
 74
     0
 42
0.0000000001
 43
0.0000000001
 40
0.0
 40
0.0
 40
0.0
 40
0.0
 40
0.1
 40
0.1
 40
0.1
 40
0.1
 40
0.2
 40
0.2
 40
0.2
 40
0.2
 40
0.3
 40
0.3
 40
0.3
 40
0.3
 40
0.4
 40
0.4
 40
0.4
 40
0.4
 40
0.5
 40
0.5
 40
0.5
 40
0.5
 40
0.6
 40
0.6
 40
0.6
 40
0.6
 40
0.7
 40
0.7
 40
0.7
 40
0.7
 40
0.8
 40
0.8
 40
0.8
 40
0.8
 40
1.0
 40
1.0
 40
1.0
 40
1.0
 10
3.64926
 20
1.69559
 30
0.0
 10
3.64926
 20
1.69559
 30
0.0
 10
3.64926
 20
2.90798
 30
0.0
 10
3.64926
 20
2.90798
 30
0.0
 10
3.64926
 20
2.90798
 30
0.0
 10
3.64331
 20
2.97533
 30
0.0
 10
3.63141
 20
3.01743
 30
0.0
 10
3.63141
 20
3.10163
 30
0.0
 10
3.63141
 20
3.10163
 30
0.0
 10
3.63141
 20
3.16898
 30
0.0
 10
3.63736
 20
3.24475
 30
0.0
 10
3.63141
 20
3.31211
 30
0.0
 10
3.63141
 20
3.31211
 30
0.0
 10
3.63141
 20
3.31211
 30
0.0
 10
3.20289
 20
3.31211
 30
0.0
 10
3.20289
 20
3.31211
 30
0.0
 10
3.20289
 20
3.31211
 30
0.0
 10
3.20289
 20
3.22792
 30
0.0
 10
3.20884
 20
3.12688
 30
0.0
 10
3.20289
 20
3.04269
 30
0.0
 10
3.20289
 20
3.04269
 30
0.0
 10
3.20289
 20
2.99217
 30
0.0
 10
3.19099
 20
2.96691
 30
0.0
 10
3.19099
 20
2.93324
 30
0.0
 10
3.19099
 20
2.93324
 30
0.0
 10
3.2148
 20
2.50385
 30
0.0
 10
3.12552
 20
2.06604
 30
0.0
 10
3.45881
 20
1.73768
 30
0.0
 10
3.45881
 20
1.73768
 30
0.0
 10
3.50047
 20
1.69559
 30
0.0
 10
3.53618
 20
1.67033
 30
0.0
 10
3.60165
 20
1.67033
 30
0.0
 10
3.60165
 20
1.67033
 30
0.0
 10
3.65521
 20
1.67875
 30
0.0
 10
3.62545
 20
1.66191
 30
0.0
 10
3.64926
 20
1.69559
 30
0.0
  0
SPLINE
  5
102
330
1F
100
AcDbEntity
  8
Warstwa 1
100
AcDbSpline
210
0.0
220
0.0
230
1.0
 70
    11
 71
     3
 72
    32
 73
    28
 74
     0
 42
0.0000000001
 43
0.0000000001
 40
0.0
 40
0.0
 40
0.0
 40
0.0
 40
0.125
 40
0.125
 40
0.125
 40
0.125
 40
0.25
 40
0.25
 40
0.25
 40
0.25
 40
0.375
 40
0.375
 40
0.375
 40
0.375
 40
0.5
 40
0.5
 40
0.5
 40
0.5
 40
0.625
 40
0.625
 40
0.625
 40
0.625
 40
0.75
 40
0.75
 40
0.75
 40
0.75
 40
1.0
 40
1.0
 40
1.0
 40
1.0
 10
3.14933
 20
0.60948
 30
0.0
 10
3.14933
 20
0.60948
 30
0.0
 10
3.63736
 20
0.60106
 30
0.0
 10
3.63736
 20
0.60106
 30
0.0
 10
3.63736
 20
0.60106
 30
0.0
 10
3.63736
 20
0.60106
 30
0.0
 10
3.63736
 20
1.63665
 30
0.0
 10
3.63736
 20
1.63665
 30
0.0
 10
3.63736
 20
1.63665
 30
0.0
 10
3.47667
 20
1.64507
 30
0.0
 10
3.45286
 20
1.64507
 30
0.0
 10
3.30407
 20
1.87239
 30
0.0
 10
3.30407
 20
1.87239
 30
0.0
 10
3.19694
 20
2.03236
 30
0.0
 10
3.2148
 20
2.09972
 30
0.0
 10
3.16123
 20
2.28494
 30
0.0
 10
3.16123
 20
2.28494
 30
0.0
 10
3.16123
 20
2.28494
 30
0.0
 10
3.16123
 20
2.28494
 30
0.0
 10
3.16123
 20
2.27652
 30
0.0
 10
3.16123
 20
2.27652
 30
0.0
 10
3.16123
 20
2.27652
 30
0.0
 10
3.14933
 20
1.45984
 30
0.0
 10
3.14933
 20
1.45984
 30
0.0
 10
3.14933
 20
1.45984
 30
0.0
 10
3.14933
 20
1.17358
 30
0.0
 10
3.14933
 20
0.88732
 30
0.0
 10
3.14933
 20
0.60948
 30
0.0
  0
SPLINE
  5
103
330
1F
100
AcDbEntity
  8
Warstwa 1
100
AcDbSpline
210
0.0
220
0.0
230
1.0
 70
    11
 71
     3
 72
   180
 73
   176
 74
     0
 42
0.0000000001
 43
0.0000000001
 40
0.0
 40
0.0
 40
0.0
 40
0.0
 40
0.0222222222222222
 40
0.0222222222222222
 40
0.0222222222222222
 40
0.0222222222222222
 40
0.0444444444444444
 40
0.0444444444444444
 40
0.0444444444444444
 40
0.0444444444444444
 40
0.0666666666666667
 40
0.0666666666666667
 40
0.0666666666666667
 40
0.0666666666666667
 40
0.0888888888888889
 40
0.0888888888888889
 40
0.0888888888888889
 40
0.0888888888888889
 40
0.1111111111111111
 40
0.1111111111111111
 40
0.1111111111111111
 40
0.1111111111111111
 40
0.1333333333333333
 40
0.1333333333333333
 40
0.1333333333333333
 40
0.1333333333333333
 40
0.1555555555555556
 40
0.1555555555555556
 40
0.1555555555555556
 40
0.1555555555555556
 40
0.1777777777777778
 40
0.1777777777777778
 40
0.1777777777777778
 40
0.1777777777777778
 40
0.2
 40
0.2
 40
0.2
 40
0.2
 40
0.2222222222222222
 40
0.2222222222222222
 40
0.2222222222222222
 40
0.2222222222222222
 40
0.2444444444444444
 40
0.2444444444444444
 40
0.2444444444444444
 40
0.2444444444444444
 40
0.2666666666666667
 40
0.2666666666666667
 40
0.2666666666666667
 40
0.2666666666666667
 40
0.2888888888888889
 40
0.2888888888888889
 40
0.2888888888888889
 40
0.2888888888888889
 40
0.3111111111111111
 40
0.3111111111111111
 40
0.3111111111111111
 40
0.3111111111111111
 40
0.3333333333333333
 40
0.3333333333333333
 40
0.3333333333333333
 40
0.3333333333333333
 40
0.3555555555555556
 40
0.3555555555555556
 40
0.3555555555555556
 40
0.3555555555555556
 40
0.3777777777777778
 40
0.3777777777777778
 40
0.3777777777777778
 40
0.3777777777777778
 40
0.4
 40
0.4
 40
0.4
 40
0.4
 40
0.4222222222222222
 40
0.4222222222222222
 40
0.4222222222222222
 40
0.4222222222222222
 40
0.4444444444444444
 40
0.4444444444444444
 40
0.4444444444444444
 40
0.4444444444444444
 40
0.4666666666666667
 40
0.4666666666666667
 40
0.4666666666666667
 40
0.4666666666666667
 40
0.4888888888888889
 40
0.4888888888888889
 40
0.4888888888888889
 40
0.4888888888888889
 40
0.5111111111111111
 40
0.5111111111111111
 40
0.5111111111111111
 40
0.5111111111111111
 40
0.5333333333333333
 40
0.5333333333333333
 40
0.5333333333333333
 40
0.5333333333333333
 40
0.5555555555555556
 40
0.5555555555555556
 40
0.5555555555555556
 40
0.5555555555555556
 40
0.5777777777777777
 40
0.5777777777777777
 40
0.5777777777777777
 40
0.5777777777777777
 40
0.6
 40
0.6
 40
0.6
 40
0.6
 40
0.6222222222222222
 40
0.6222222222222222
 40
0.6222222222222222
 40
0.6222222222222222
 40
0.6444444444444445
 40
0.6444444444444445
 40
0.6444444444444445
 40
0.6444444444444445
 40
0.6666666666666666
 40
0.6666666666666666
 40
0.6666666666666666
 40
0.6666666666666666
 40
0.6888888888888889
 40
0.6888888888888889
 40
0.6888888888888889
 40
0.6888888888888889
 40
0.7111111111111111
 40
0.7111111111111111
 40
0.7111111111111111
 40
0.7111111111111111
 40
0.7333333333333333
 40
0.7333333333333333
 40
0.7333333333333333
 40
0.7333333333333333
 40
0.7555555555555555
 40
0.7555555555555555
 40
0.7555555555555555
 40
0.7555555555555555
 40
0.7777777777777778
 40
0.7777777777777778
 40
0.7777777777777778
 40
0.7777777777777778
 40
0.8
 40
0.8
 40
0.8
 40
0.8
 40
0.8222222222222222
 40
0.8222222222222222
 40
0.8222222222222222
 40
0.8222222222222222
 40
0.8444444444444444
 40
0.8444444444444444
 40
0.8444444444444444
 40
0.8444444444444444
 40
0.8666666666666667
 40
0.8666666666666667
 40
0.8666666666666667
 40
0.8666666666666667
 40
0.8888888888888888
 40
0.8888888888888888
 40
0.8888888888888888
 40
0.8888888888888888
 40
0.9111111111111111
 40
0.9111111111111111
 40
0.9111111111111111
 40
0.9111111111111111
 40
0.9333333333333333
 40
0.9333333333333333
 40
0.9333333333333333
 40
0.9333333333333333
 40
0.9555555555555556
 40
0.9555555555555556
 40
0.9555555555555556
 40
0.9555555555555556
 40
1.0
 40
1.0
 40
1.0
 40
1.0
 10
-6.95645
 20
10.88957
 30
0.0
 10
-6.95645
 20
10.88957
 30
0.0
 10
-6.9624
 20
10.7717
 30
0.0
 10
-6.9624
 20
10.7717
 30
0.0
 10
-6.9624
 20
10.7717
 30
0.0
 10
-7.02192
 20
10.7717
 30
0.0
 10
-7.03382
 20
10.75486
 30
0.0
 10
-7.06953
 20
10.75486
 30
0.0
 10
-7.06953
 20
10.75486
 30
0.0
 10
-7.18539
 20
10.73301
 30
0.0
 10
-7.20852
 20
10.77491
 30
0.0
 10
-7.21048
 20
10.68285
 30
0.0
 10
-7.21048
 20
10.68285
 30
0.0
 10
-7.21048
 20
10.68285
 30
0.0
 10
-7.20757
 20
10.68285
 30
0.0
 10
-7.20757
 20
10.68285
 30
0.0
 10
-7.20757
 20
10.68285
 30
0.0
 10
-7.20757
 20
10.68285
 30
0.0
 10
-7.20757
 20
10.51399
 30
0.0
 10
-7.20757
 20
10.51399
 30
0.0
 10
-7.20757
 20
10.51399
 30
0.0
 10
-7.20692
 20
10.47702
 30
0.0
 10
-7.20642
 20
10.43414
 30
0.0
 10
-7.20642
 20
10.38441
 30
0.0
 10
-7.20642
 20
10.38441
 30
0.0
 10
-7.20642
 20
10.37305
 30
0.0
 10
-7.20681
 20
10.36279
 30
0.0
 10
-7.20757
 20
10.35337
 30
0.0
 10
-7.20757
 20
10.35337
 30
0.0
 10
-7.20757
 20
10.35337
 30
0.0
 10
-7.20757
 20
8.95663
 30
0.0
 10
-7.20757
 20
8.95663
 30
0.0
 10
-7.20757
 20
8.95663
 30
0.0
 10
-7.20678
 20
8.94382
 30
0.0
 10
-7.20642
 20
8.92884
 30
0.0
 10
-7.20642
 20
8.91101
 30
0.0
 10
-7.20642
 20
8.91101
 30
0.0
 10
-7.20642
 20
8.91101
 30
0.0
 10
-7.20642
 20
7.53023
 30
0.0
 10
-7.20642
 20
7.53023
 30
0.0
 10
-7.20642
 20
7.53023
 30
0.0
 10
-7.20642
 20
7.52588
 30
0.0
 10
-7.20683
 20
7.52153
 30
0.0
 10
-7.20757
 20
7.51718
 30
0.0
 10
-7.20757
 20
7.51718
 30
0.0
 10
-7.20757
 20
7.51718
 30
0.0
 10
-7.20757
 20
6.16381
 30
0.0
 10
-7.20757
 20
6.16381
 30
0.0
 10
-7.20757
 20
6.16381
 30
0.0
 10
-7.2068
 20
6.15752
 30
0.0
 10
-7.20642
 20
6.15009
 30
0.0
 10
-7.20642
 20
6.14103
 30
0.0
 10
-7.20642
 20
6.14103
 30
0.0
 10
-7.20642
 20
6.14103
 30
0.0
 10
-7.20642
 20
5.77057
 30
0.0
 10
-7.20642
 20
5.77057
 30
0.0
 10
-7.20642
 20
5.77057
 30
0.0
 10
-7.19451
 20
5.7369
 30
0.0
 10
-7.19451
 20
5.76216
 30
0.0
 10
-7.18856
 20
5.72006
 30
0.0
 10
-7.18856
 20
5.72006
 30
0.0
 10
-7.16476
 20
5.56851
 30
0.0
 10
-7.25403
 20
5.59377
 30
0.0
 10
-7.06358
 20
5.44222
 30
0.0
 10
-7.06358
 20
5.44222
 30
0.0
 10
-6.81361
 20
5.24015
 30
0.0
 10
-6.56365
 20
5.20647
 30
0.0
 10
-6.24226
 20
5.20647
 30
0.0
 10
-6.24226
 20
5.20647
 30
0.0
 10
-6.24226
 20
5.20647
 30
0.0
 10
-1.32031
 20
5.20647
 30
0.0
 10
-1.32031
 20
5.20647
 30
0.0
 10
-1.32031
 20
5.20647
 30
0.0
 10
-0.9156
 20
5.22331
 30
0.0
 10
-0.62397
 20
5.13912
 30
0.0
 10
-0.22522
 20
5.3496
 30
0.0
 10
-0.22522
 20
5.3496
 30
0.0
 10
-0.1538
 20
5.38328
 30
0.0
 10
-0.04667
 20
5.4759
 30
0.0
 10
0.00094
 20
5.52641
 30
0.0
 10
0.00094
 20
5.52641
 30
0.0
 10
0.05451
 20
5.57693
 30
0.0
 10
0.04261
 20
5.58535
 30
0.0
 10
0.04856
 20
5.67796
 30
0.0
 10
0.04856
 20
5.67796
 30
0.0
 10
0.04856
 20
5.7369
 30
0.0
 10
0.04856
 20
5.72848
 30
0.0
 10
0.06046
 20
5.76216
 30
0.0
 10
0.06046
 20
5.76216
 30
0.0
 10
0.06641
 20
5.80425
 30
0.0
 10
0.06641
 20
5.82951
 30
0.0
 10
0.06641
 20
5.87161
 30
0.0
 10
0.06641
 20
5.87161
 30
0.0
 10
0.10212
 20
5.87161
 30
0.0
 10
0.12593
 20
5.86319
 30
0.0
 10
0.14973
 20
5.86319
 30
0.0
 10
0.14973
 20
5.86319
 30
0.0
 10
0.18544
 20
5.86319
 30
0.0
 10
0.17949
 20
5.87161
 30
0.0
 10
0.23306
 20
5.87161
 30
0.0
 10
0.23306
 20
5.87161
 30
0.0
 10
0.32828
 20
5.86319
 30
0.0
 10
0.29257
 20
5.85477
 30
0.0
 10
0.37589
 20
5.89687
 30
0.0
 10
0.37589
 20
5.89687
 30
0.0
 10
0.3878
 20
6.00632
 30
0.0
 10
0.3878
 20
7.58075
 30
0.0
 10
0.38185
 20
7.79123
 30
0.0
 10
0.38185
 20
7.79123
 30
0.0
 10
0.29257
 20
7.82491
 30
0.0
 10
0.32233
 20
7.82491
 30
0.0
 10
0.23306
 20
7.81649
 30
0.0
 10
0.23306
 20
7.81649
 30
0.0
 10
0.17354
 20
7.80807
 30
0.0
 10
0.19139
 20
7.82491
 30
0.0
 10
0.15569
 20
7.82491
 30
0.0
 10
0.15569
 20
7.82491
 30
0.0
 10
0.13188
 20
7.82491
 30
0.0
 10
0.10212
 20
7.81649
 30
0.0
 10
0.06641
 20
7.81649
 30
0.0
 10
0.06641
 20
7.81649
 30
0.0
 10
0.06641
 20
7.81649
 30
0.0
 10
0.06641
 20
8.68369
 30
0.0
 10
0.06641
 20
8.68369
 30
0.0
 10
0.06641
 20
8.68369
 30
0.0
 10
0.10807
 20
8.68369
 30
0.0
 10
0.11402
 20
8.67527
 30
0.0
 10
0.14378
 20
8.67527
 30
0.0
 10
0.14378
 20
8.67527
 30
0.0
 10
0.19139
 20
8.66685
 30
0.0
 10
0.17949
 20
8.68369
 30
0.0
 10
0.22115
 20
8.68369
 30
0.0
 10
0.22115
 20
8.68369
 30
0.0
 10
0.31043
 20
8.67527
 30
0.0
 10
0.28067
 20
8.65843
 30
0.0
 10
0.37589
 20
8.70053
 30
0.0
 10
0.37589
 20
8.70053
 30
0.0
 10
0.37589
 20
8.70053
 30
0.0
 10
0.38185
 20
10.59489
 30
0.0
 10
0.38185
 20
10.59489
 30
0.0
 10
0.38185
 20
10.59489
 30
0.0
 10
0.29852
 20
10.62857
 30
0.0
 10
0.33423
 20
10.62857
 30
0.0
 10
0.23306
 20
10.62015
 30
0.0
 10
0.23306
 20
10.62015
 30
0.0
 10
0.18544
 20
10.62015
 30
0.0
 10
0.19139
 20
10.62857
 30
0.0
 10
0.15569
 20
10.62857
 30
0.0
 10
0.15569
 20
10.62857
 30
0.0
 10
0.12593
 20
10.62857
 30
0.0
 10
0.10807
 20
10.62015
 30
0.0
 10
0.06641
 20
10.62015
 30
0.0
 10
0.06641
 20
10.62015
 30
0.0
 10
0.04856
 20
10.83063
 30
0.0
 10
0.08427
 20
10.70434
 30
0.0
 10
-0.10618
 20
10.75486
 30
0.0
 10
-0.10618
 20
10.75486
 30
0.0
 10
-0.24902
 20
10.79696
 30
0.0
 10
-0.14785
 20
10.78012
 30
0.0
 10
-0.20141
 20
10.89799
 30
0.0
 10
-0.20141
 20
10.89799
 30
0.0
 10
-0.29068
 20
10.91483
 30
0.0
 10
-2.44515
 20
10.90641
 30
0.0
 10
-2.73678
 20
10.90641
 30
0.0
 10
-2.73678
 20
10.90641
 30
0.0
 10
-3.01055
 20
10.90641
 30
0.0
 10
-3.31408
 20
10.91483
 30
0.0
 10
-3.58786
 20
10.90641
 30
0.0
 10
-3.58786
 20
10.90641
 30
0.0
 10
-4.14731
 20
10.88957
 30
0.0
 10
-4.71866
 20
10.90641
 30
0.0
 10
-5.28406
 20
10.90641
 30
0.0
 10
-5.28406
 20
10.90641
 30
0.0
 10
-5.4626
 20
10.90641
 30
0.0
 10
-6.90884
 20
10.92325
 30
0.0
 10
-6.95645
 20
10.88957
 30
0.0
  0
SPLINE
  5
104
330
1F
100
AcDbEntity
  8
Warstwa 1
100
AcDbSpline
210
0.0
220
0.0
230
1.0
 70
    11
 71
     3
 72
   164
 73
   160
 74
     0
 42
0.0000000001
 43
0.0000000001
 40
0.0
 40
0.0
 40
0.0
 40
0.0
 40
0.024390243902439
 40
0.024390243902439
 40
0.024390243902439
 40
0.024390243902439
 40
0.0487804878048781
 40
0.0487804878048781
 40
0.0487804878048781
 40
0.0487804878048781
 40
0.0731707317073171
 40
0.0731707317073171
 40
0.0731707317073171
 40
0.0731707317073171
 40
0.0975609756097561
 40
0.0975609756097561
 40
0.0975609756097561
 40
0.0975609756097561
 40
0.1219512195121951
 40
0.1219512195121951
 40
0.1219512195121951
 40
0.1219512195121951
 40
0.1463414634146341
 40
0.1463414634146341
 40
0.1463414634146341
 40
0.1463414634146341
 40
0.1707317073170732
 40
0.1707317073170732
 40
0.1707317073170732
 40
0.1707317073170732
 40
0.1951219512195122
 40
0.1951219512195122
 40
0.1951219512195122
 40
0.1951219512195122
 40
0.2195121951219512
 40
0.2195121951219512
 40
0.2195121951219512
 40
0.2195121951219512
 40
0.2439024390243902
 40
0.2439024390243902
 40
0.2439024390243902
 40
0.2439024390243902
 40
0.2682926829268293
 40
0.2682926829268293
 40
0.2682926829268293
 40
0.2682926829268293
 40
0.2926829268292683
 40
0.2926829268292683
 40
0.2926829268292683
 40
0.2926829268292683
 40
0.3170731707317073
 40
0.3170731707317073
 40
0.3170731707317073
 40
0.3170731707317073
 40
0.3414634146341464
 40
0.3414634146341464
 40
0.3414634146341464
 40
0.3414634146341464
 40
0.3658536585365854
 40
0.3658536585365854
 40
0.3658536585365854
 40
0.3658536585365854
 40
0.3902439024390244
 40
0.3902439024390244
 40
0.3902439024390244
 40
0.3902439024390244
 40
0.4146341463414634
 40
0.4146341463414634
 40
0.4146341463414634
 40
0.4146341463414634
 40
0.4390243902439024
 40
0.4390243902439024
 40
0.4390243902439024
 40
0.4390243902439024
 40
0.4634146341463415
 40
0.4634146341463415
 40
0.4634146341463415
 40
0.4634146341463415
 40
0.4878048780487805
 40
0.4878048780487805
 40
0.4878048780487805
 40
0.4878048780487805
 40
0.5121951219512195
 40
0.5121951219512195
 40
0.5121951219512195
 40
0.5121951219512195
 40
0.5365853658536586
 40
0.5365853658536586
 40
0.5365853658536586
 40
0.5365853658536586
 40
0.5609756097560976
 40
0.5609756097560976
 40
0.5609756097560976
 40
0.5609756097560976
 40
0.5853658536585366
 40
0.5853658536585366
 40
0.5853658536585366
 40
0.5853658536585366
 40
0.6097560975609756
 40
0.6097560975609756
 40
0.6097560975609756
 40
0.6097560975609756
 40
0.6341463414634146
 40
0.6341463414634146
 40
0.6341463414634146
 40
0.6341463414634146
 40
0.6585365853658537
 40
0.6585365853658537
 40
0.6585365853658537
 40
0.6585365853658537
 40
0.6829268292682927
 40
0.6829268292682927
 40
0.6829268292682927
 40
0.6829268292682927
 40
0.7073170731707317
 40
0.7073170731707317
 40
0.7073170731707317
 40
0.7073170731707317
 40
0.7317073170731707
 40
0.7317073170731707
 40
0.7317073170731707
 40
0.7317073170731707
 40
0.7560975609756098
 40
0.7560975609756098
 40
0.7560975609756098
 40
0.7560975609756098
 40
0.7804878048780488
 40
0.7804878048780488
 40
0.7804878048780488
 40
0.7804878048780488
 40
0.8048780487804879
 40
0.8048780487804879
 40
0.8048780487804879
 40
0.8048780487804879
 40
0.8292682926829268
 40
0.8292682926829268
 40
0.8292682926829268
 40
0.8292682926829268
 40
0.8536585365853658
 40
0.8536585365853658
 40
0.8536585365853658
 40
0.8536585365853658
 40
0.8780487804878049
 40
0.8780487804878049
 40
0.8780487804878049
 40
0.8780487804878049
 40
0.9024390243902439
 40
0.9024390243902439
 40
0.9024390243902439
 40
0.9024390243902439
 40
0.926829268292683
 40
0.926829268292683
 40
0.926829268292683
 40
0.926829268292683
 40
0.9512195121951219
 40
0.9512195121951219
 40
0.9512195121951219
 40
0.9512195121951219
 40
1.0
 40
1.0
 40
1.0
 40
1.0
 10
-6.9624
 20
-11.7502
 30
0.0
 10
-6.9624
 20
-11.7502
 30
0.0
 10
-6.95645
 20
-11.88491
 30
0.0
 10
-6.95645
 20
-11.88491
 30
0.0
 10
-6.95645
 20
-11.88491
 30
0.0
 10
-6.86123
 20
-11.91016
 30
0.0
 10
-6.27202
 20
-11.89333
 30
0.0
 10
-6.12323
 20
-11.89333
 30
0.0
 10
-6.12323
 20
-11.89333
 30
0.0
 10
-5.83755
 20
-11.89333
 30
0.0
 10
-5.55188
 20
-11.89333
 30
0.0
 10
-5.27215
 20
-11.89333
 30
0.0
 10
-5.27215
 20
-11.89333
 30
0.0
 10
-5.27215
 20
-11.89333
 30
0.0
 10
-0.30259
 20
-11.89333
 30
0.0
 10
-0.30259
 20
-11.89333
 30
0.0
 10
-0.30259
 20
-11.89333
 30
0.0
 10
-0.29068
 20
-11.89333
 30
0.0
 10
-0.25497
 20
-11.90174
 30
0.0
 10
-0.24307
 20
-11.89333
 30
0.0
 10
-0.24307
 20
-11.89333
 30
0.0
 10
-0.13594
 20
-11.88491
 30
0.0
 10
-0.21331
 20
-11.80071
 30
0.0
 10
-0.1776
 20
-11.75861
 30
0.0
 10
-0.1776
 20
-11.75861
 30
0.0
 10
-0.1776
 20
-11.75861
 30
0.0
 10
-0.13594
 20
-11.7502
 30
0.0
 10
-0.13594
 20
-11.7502
 30
0.0
 10
-0.13594
 20
-11.7502
 30
0.0
 10
-0.11809
 20
-11.74178
 30
0.0
 10
-0.08833
 20
-11.7502
 30
0.0
 10
-0.06452
 20
-11.7502
 30
0.0
 10
-0.06452
 20
-11.7502
 30
0.0
 10
-0.02286
 20
-11.7502
 30
0.0
 10
0.0188
 20
-11.7502
 30
0.0
 10
0.05451
 20
-11.73336
 30
0.0
 10
0.05451
 20
-11.73336
 30
0.0
 10
0.05451
 20
-11.73336
 30
0.0
 10
0.06641
 20
-11.61548
 30
0.0
 10
0.06641
 20
-11.61548
 30
0.0
 10
0.06641
 20
-11.61548
 30
0.0
 10
0.11402
 20
-11.61548
 30
0.0
 10
0.13188
 20
-11.6239
 30
0.0
 10
0.14973
 20
-11.63232
 30
0.0
 10
0.14973
 20
-11.63232
 30
0.0
 10
0.18544
 20
-11.63232
 30
0.0
 10
0.17354
 20
-11.61548
 30
0.0
 10
0.22115
 20
-11.61548
 30
0.0
 10
0.22115
 20
-11.61548
 30
0.0
 10
0.25686
 20
-11.61548
 30
0.0
 10
0.36994
 20
-11.65758
 30
0.0
 10
0.38185
 20
-11.54813
 30
0.0
 10
0.38185
 20
-11.54813
 30
0.0
 10
0.38185
 20
-11.54813
 30
0.0
 10
0.38185
 20
-9.70428
 30
0.0
 10
0.38185
 20
-9.70428
 30
0.0
 10
0.38185
 20
-9.70428
 30
0.0
 10
0.29852
 20
-9.66218
 30
0.0
 10
0.32828
 20
-9.66218
 30
0.0
 10
0.23306
 20
-9.6706
 30
0.0
 10
0.23306
 20
-9.6706
 30
0.0
 10
0.19735
 20
-9.67902
 30
0.0
 10
0.18544
 20
-9.6706
 30
0.0
 10
0.15569
 20
-9.6706
 30
0.0
 10
0.15569
 20
-9.6706
 30
0.0
 10
0.12593
 20
-9.6706
 30
0.0
 10
0.10212
 20
-9.67902
 30
0.0
 10
0.07236
 20
-9.67902
 30
0.0
 10
0.07236
 20
-9.67902
 30
0.0
 10
0.07236
 20
-9.67902
 30
0.0
 10
0.06641
 20
-8.81182
 30
0.0
 10
0.06641
 20
-8.81182
 30
0.0
 10
0.06641
 20
-8.81182
 30
0.0
 10
0.10807
 20
-8.81182
 30
0.0
 10
0.11998
 20
-8.82024
 30
0.0
 10
0.14378
 20
-8.82024
 30
0.0
 10
0.14378
 20
-8.82024
 30
0.0
 10
0.19735
 20
-8.82024
 30
0.0
 10
0.17949
 20
-8.81182
 30
0.0
 10
0.23306
 20
-8.81182
 30
0.0
 10
0.23306
 20
-8.81182
 30
0.0
 10
0.32828
 20
-8.82024
 30
0.0
 10
0.29257
 20
-8.82024
 30
0.0
 10
0.38185
 20
-8.78657
 30
0.0
 10
0.38185
 20
-8.78657
 30
0.0
 10
0.39375
 20
-8.61818
 30
0.0
 10
0.39375
 20
-6.94272
 30
0.0
 10
0.36994
 20
-6.8922
 30
0.0
 10
0.36994
 20
-6.8922
 30
0.0
 10
0.32233
 20
-6.8501
 30
0.0
 10
0.29257
 20
-6.86694
 30
0.0
 10
0.23306
 20
-6.86694
 30
0.0
 10
0.23306
 20
-6.86694
 30
0.0
 10
0.17354
 20
-6.87536
 30
0.0
 10
0.2033
 20
-6.85852
 30
0.0
 10
0.15569
 20
-6.85852
 30
0.0
 10
0.15569
 20
-6.85852
 30
0.0
 10
0.11402
 20
-6.85852
 30
0.0
 10
0.11998
 20
-6.87536
 30
0.0
 10
0.07236
 20
-6.87536
 30
0.0
 10
0.07236
 20
-6.87536
 30
0.0
 10
0.06641
 20
-6.83327
 30
0.0
 10
0.06641
 20
-6.79959
 30
0.0
 10
0.06046
 20
-6.76591
 30
0.0
 10
0.06046
 20
-6.76591
 30
0.0
 10
0.0188
 20
-6.58068
 30
0.0
 10
0.08427
 20
-6.59752
 30
0.0
 10
-0.01691
 20
-6.50491
 30
0.0
 10
-0.01691
 20
-6.50491
 30
0.0
 10
-0.32639
 20
-6.20181
 30
0.0
 10
-0.64778
 20
-6.20181
 30
0.0
 10
-1.09415
 20
-6.20181
 30
0.0
 10
-1.09415
 20
-6.20181
 30
0.0
 10
-1.09415
 20
-6.20181
 30
0.0
 10
-5.68281
 20
-6.19339
 30
0.0
 10
-5.68281
 20
-6.19339
 30
0.0
 10
-5.68281
 20
-6.19339
 30
0.0
 10
-5.93278
 20
-6.19339
 30
0.0
 10
-6.35534
 20
-6.18497
 30
0.0
 10
-6.58745
 20
-6.22707
 30
0.0
 10
-6.58745
 20
-6.22707
 30
0.0
 10
-6.71839
 20
-6.25233
 30
0.0
 10
-6.81361
 20
-6.28601
 30
0.0
 10
-6.92074
 20
-6.34494
 30
0.0
 10
-6.92074
 20
-6.34494
 30
0.0
 10
-6.98621
 20
-6.37862
 30
0.0
 10
-7.15285
 20
-6.49649
 30
0.0
 10
-7.17666
 20
-6.54701
 30
0.0
 10
-7.17666
 20
-6.54701
 30
0.0
 10
-7.20046
 20
-6.5891
 30
0.0
 10
-7.18261
 20
-6.69856
 30
0.0
 10
-7.19451
 20
-6.74907
 30
0.0
 10
-7.19451
 20
-6.74907
 30
0.0
 10
-7.20124
 20
-6.77445
 30
0.0
 10
-7.20459
 20
-6.80221
 30
0.0
 10
-7.20615
 20
-6.83102
 30
0.0
 10
-7.20615
 20
-6.83102
 30
0.0
 10
-7.20615
 20
-6.83102
 30
0.0
 10
-7.20615
 20
-8.53944
 30
0.0
 10
-7.20615
 20
-8.53944
 30
0.0
 10
-7.20615
 20
-8.53944
 30
0.0
 10
-7.19834
 20
-8.58271
 30
0.0
 10
-7.20473
 20
-8.6346
 30
0.0
 10
-7.20615
 20
-8.75125
 30
0.0
 10
-7.20615
 20
-8.75125
 30
0.0
 10
-7.20615
 20
-8.75125
 30
0.0
 10
-7.20615
 20
-11.31391
 30
0.0
 10
-7.20615
 20
-11.31391
 30
0.0
 10
-7.20615
 20
-11.31391
 30
0.0
 10
-7.19967
 20
-11.33538
 30
0.0
 10
-7.20487
 20
-11.36712
 30
0.0
 10
-7.20615
 20
-11.4763
 30
0.0
 10
-7.20615
 20
-11.4763
 30
0.0
 10
-7.20615
 20
-11.4763
 30
0.0
 10
-7.20615
 20
-11.69703
 30
0.0
 10
-7.20615
 20
-11.69703
 30
0.0
 10
-7.20615
 20
-11.69703
 30
0.0
 10
-7.19949
 20
-11.7839
 30
0.0
 10
-7.16003
 20
-11.73197
 30
0.0
 10
-6.9624
 20
-11.7502
 30
0.0
  0
SPLINE
  5
105
330
1F
100
AcDbEntity
  8
Warstwa 1
 62
     7
100
AcDbSpline
210
0.0
220
0.0
230
1.0
 70
    11
 71
     3
 72
    32
 73
    28
 74
     0
 42
0.0000000001
 43
0.0000000001
 40
0.0
 40
0.0
 40
0.0
 40
0.0
 40
0.125
 40
0.125
 40
0.125
 40
0.125
 40
0.25
 40
0.25
 40
0.25
 40
0.25
 40
0.375
 40
0.375
 40
0.375
 40
0.375
 40
0.5
 40
0.5
 40
0.5
 40
0.5
 40
0.625
 40
0.625
 40
0.625
 40
0.625
 40
0.75
 40
0.75
 40
0.75
 40
0.75
 40
1.0
 40
1.0
 40
1.0
 40
1.0
 10
-1.37644
 20
0.45793
 30
0.0
 10
-1.37886
 20
0.50766
 30
0.0
 10
-1.38192
 20
0.54103
 30
0.0
 10
-1.38577
 20
0.55055
 30
0.0
 10
-1.38577
 20
0.55055
 30
0.0
 10
-1.40958
 20
0.58422
 30
0.0
 10
-4.25443
 20
0.55897
 30
0.0
 10
-4.677
 20
0.55897
 30
0.0
 10
-4.677
 20
0.55897
 30
0.0
 10
-4.86149
 20
0.55897
 30
0.0
 10
-5.04599
 20
0.55897
 30
0.0
 10
-5.22454
 20
0.55897
 30
0.0
 10
-5.22454
 20
0.55897
 30
0.0
 10
-5.22454
 20
0.55897
 30
0.0
 10
-5.64115
 20
0.55897
 30
0.0
 10
-5.64115
 20
0.55897
 30
0.0
 10
-5.64115
 20
0.55897
 30
0.0
 10
-5.72447
 20
0.55897
 30
0.0
 10
-5.75423
 20
0.57581
 30
0.0
 10
-5.76018
 20
0.54213
 30
0.0
 10
-5.76018
 20
0.54213
 30
0.0
 10
-5.76018
 20
0.54213
 30
0.0
 10
-5.76018
 20
0.45793
 30
0.0
 10
-5.76018
 20
0.45793
 30
0.0
 10
-5.76018
 20
0.45793
 30
0.0
 10
-5.76018
 20
0.45793
 30
0.0
 10
-1.37644
 20
0.45793
 30
0.0
 10
-1.37644
 20
0.45793
 30
0.0
  0
SPLINE
  5
106
330
1F
100
AcDbEntity
  8
Warstwa 1
 62
     7
100
AcDbSpline
210
0.0
220
0.0
230
1.0
 70
    11
 71
     3
 72
    28
 73
    24
 74
     0
 42
0.0000000001
 43
0.0000000001
 40
0.0
 40
0.0
 40
0.0
 40
0.0
 40
0.1428571428571428
 40
0.1428571428571428
 40
0.1428571428571428
 40
0.1428571428571428
 40
0.2857142857142857
 40
0.2857142857142857
 40
0.2857142857142857
 40
0.2857142857142857
 40
0.4285714285714285
 40
0.4285714285714285
 40
0.4285714285714285
 40
0.4285714285714285
 40
0.5714285714285714
 40
0.5714285714285714
 40
0.5714285714285714
 40
0.5714285714285714
 40
0.7142857142857143
 40
0.7142857142857143
 40
0.7142857142857143
 40
0.7142857142857143
 40
1.0
 40
1.0
 40
1.0
 40
1.0
 10
-1.42371
 20
0.45793
 30
0.0
 10
-1.42148
 20
0.46004
 30
0.0
 10
-1.4185
 20
0.46214
 30
0.0
 10
-1.41553
 20
0.46635
 30
0.0
 10
-1.41553
 20
0.46635
 30
0.0
 10
-1.41333
 20
0.46842
 30
0.0
 10
-1.41133
 20
0.46986
 30
0.0
 10
-1.40951
 20
0.47081
 30
0.0
 10
-1.40951
 20
0.47081
 30
0.0
 10
-1.39659
 20
0.47761
 30
0.0
 10
-1.39393
 20
0.46
 30
0.0
 10
-1.40958
 20
0.47477
 30
0.0
 10
-1.40958
 20
0.47477
 30
0.0
 10
-1.40958
 20
0.47477
 30
0.0
 10
-1.40951
 20
0.47081
 30
0.0
 10
-1.40951
 20
0.47081
 30
0.0
 10
-1.40951
 20
0.47081
 30
0.0
 10
-1.40951
 20
0.47081
 30
0.0
 10
-1.40927
 20
0.45793
 30
0.0
 10
-1.40927
 20
0.45793
 30
0.0
 10
-1.40927
 20
0.45793
 30
0.0
 10
-1.40927
 20
0.45793
 30
0.0
 10
-1.42371
 20
0.45793
 30
0.0
 10
-1.42371
 20
0.45793
 30
0.0
  0
SPLINE
  5
107
330
1F
100
AcDbEntity
  8
Warstwa 1
 62
     7
100
AcDbSpline
210
0.0
220
0.0
230
1.0
 70
    11
 71
     3
 72
    72
 73
    68
 74
     0
 42
0.0000000001
 43
0.0000000001
 40
0.0
 40
0.0
 40
0.0
 40
0.0
 40
0.0555555555555556
 40
0.0555555555555556
 40
0.0555555555555556
 40
0.0555555555555556
 40
0.1111111111111111
 40
0.1111111111111111
 40
0.1111111111111111
 40
0.1111111111111111
 40
0.1666666666666667
 40
0.1666666666666667
 40
0.1666666666666667
 40
0.1666666666666667
 40
0.2222222222222222
 40
0.2222222222222222
 40
0.2222222222222222
 40
0.2222222222222222
 40
0.2777777777777778
 40
0.2777777777777778
 40
0.2777777777777778
 40
0.2777777777777778
 40
0.3333333333333333
 40
0.3333333333333333
 40
0.3333333333333333
 40
0.3333333333333333
 40
0.3888888888888889
 40
0.3888888888888889
 40
0.3888888888888889
 40
0.3888888888888889
 40
0.4444444444444444
 40
0.4444444444444444
 40
0.4444444444444444
 40
0.4444444444444444
 40
0.5
 40
0.5
 40
0.5
 40
0.5
 40
0.5555555555555556
 40
0.5555555555555556
 40
0.5555555555555556
 40
0.5555555555555556
 40
0.6111111111111112
 40
0.6111111111111112
 40
0.6111111111111112
 40
0.6111111111111112
 40
0.6666666666666666
 40
0.6666666666666666
 40
0.6666666666666666
 40
0.6666666666666666
 40
0.7222222222222222
 40
0.7222222222222222
 40
0.7222222222222222
 40
0.7222222222222222
 40
0.7777777777777778
 40
0.7777777777777778
 40
0.7777777777777778
 40
0.7777777777777778
 40
0.8333333333333334
 40
0.8333333333333334
 40
0.8333333333333334
 40
0.8333333333333334
 40
0.8888888888888888
 40
0.8888888888888888
 40
0.8888888888888888
 40
0.8888888888888888
 40
1.0
 40
1.0
 40
1.0
 40
1.0
 10
-7.1469
 20
-4.71158
 30
0.0
 10
-7.1469
 20
-4.71158
 30
0.0
 10
0.00094
 20
-4.71158
 30
0.0
 10
0.00094
 20
-4.71158
 30
0.0
 10
0.00094
 20
-4.71158
 30
0.0
 10
0.00094
 20
-4.71158
 30
0.0
 10
0.00094
 20
-3.60477
 30
0.0
 10
0.00094
 20
-3.60477
 30
0.0
 10
0.00094
 20
-3.60477
 30
0.0
 10
0.00094
 20
-3.60477
 30
0.0
 10
0.00094
 20
0.45793
 30
0.0
 10
0.00094
 20
0.45793
 30
0.0
 10
0.00094
 20
0.45793
 30
0.0
 10
0.00094
 20
0.45793
 30
0.0
 10
0.00094
 20
0.46635
 30
0.0
 10
0.00094
 20
0.46635
 30
0.0
 10
0.00094
 20
0.46635
 30
0.0
 10
-0.01948
 20
0.46274
 30
0.0
 10
-0.04442
 20
0.46
 30
0.0
 10
-0.07263
 20
0.45793
 30
0.0
 10
-0.07263
 20
0.45793
 30
0.0
 10
-0.07263
 20
0.45793
 30
0.0
 10
-0.67158
 20
0.45793
 30
0.0
 10
-0.67158
 20
0.45793
 30
0.0
 10
-0.67158
 20
0.45793
 30
0.0
 10
-0.89774
 20
0.46635
 30
0.0
 10
-1.11795
 20
0.46635
 30
0.0
 10
-1.34411
 20
0.46635
 30
0.0
 10
-1.34411
 20
0.46635
 30
0.0
 10
-1.34411
 20
0.46635
 30
0.0
 10
-1.34455
 20
0.45793
 30
0.0
 10
-1.34455
 20
0.45793
 30
0.0
 10
-1.34455
 20
0.45793
 30
0.0
 10
-1.34455
 20
0.45793
 30
0.0
 10
-1.37644
 20
0.45793
 30
0.0
 10
-1.37644
 20
0.45793
 30
0.0
 10
-1.37644
 20
0.45793
 30
0.0
 10
-1.37644
 20
0.45793
 30
0.0
 10
-1.40927
 20
0.45793
 30
0.0
 10
-1.40927
 20
0.45793
 30
0.0
 10
-1.40927
 20
0.45793
 30
0.0
 10
-1.40927
 20
0.45793
 30
0.0
 10
-1.42371
 20
0.45793
 30
0.0
 10
-1.42371
 20
0.45793
 30
0.0
 10
-1.42371
 20
0.45793
 30
0.0
 10
-1.42371
 20
0.45793
 30
0.0
 10
-5.76018
 20
0.45793
 30
0.0
 10
-5.76018
 20
0.45793
 30
0.0
 10
-5.76018
 20
0.45793
 30
0.0
 10
-5.76018
 20
0.45793
 30
0.0
 10
-5.79099
 20
0.45793
 30
0.0
 10
-5.79099
 20
0.45793
 30
0.0
 10
-5.79099
 20
0.45793
 30
0.0
 10
-5.79099
 20
0.45793
 30
0.0
 10
-5.78994
 20
0.46635
 30
0.0
 10
-5.78994
 20
0.46635
 30
0.0
 10
-5.78994
 20
0.46635
 30
0.0
 10
-5.78994
 20
0.46635
 30
0.0
 10
-7.1469
 20
0.45793
 30
0.0
 10
-7.1469
 20
0.45793
 30
0.0
 10
-7.1469
 20
0.45793
 30
0.0
 10
-7.1469
 20
0.45793
 30
0.0
 10
-7.1469
 20
-3.60477
 30
0.0
 10
-7.1469
 20
-3.60477
 30
0.0
 10
-7.1469
 20
-3.60477
 30
0.0
 10
-7.1469
 20
-3.60477
 30
0.0
 10
-7.1469
 20
-4.71158
 30
0.0
 10
-7.1469
 20
-4.71158
 30
0.0
  0
SPLINE
  5
108
330
1F
100
AcDbEntity
  8
Warstwa 1
 62
     7
100
AcDbSpline
210
0.0
220
0.0
230
1.0
 70
    11
 71
     3
 72
    72
 73
    68
 74
     0
 42
0.0000000001
 43
0.0000000001
 40
0.0
 40
0.0
 40
0.0
 40
0.0
 40
0.0555555555555556
 40
0.0555555555555556
 40
0.0555555555555556
 40
0.0555555555555556
 40
0.1111111111111111
 40
0.1111111111111111
 40
0.1111111111111111
 40
0.1111111111111111
 40
0.1666666666666667
 40
0.1666666666666667
 40
0.1666666666666667
 40
0.1666666666666667
 40
0.2222222222222222
 40
0.2222222222222222
 40
0.2222222222222222
 40
0.2222222222222222
 40
0.2777777777777778
 40
0.2777777777777778
 40
0.2777777777777778
 40
0.2777777777777778
 40
0.3333333333333333
 40
0.3333333333333333
 40
0.3333333333333333
 40
0.3333333333333333
 40
0.3888888888888889
 40
0.3888888888888889
 40
0.3888888888888889
 40
0.3888888888888889
 40
0.4444444444444444
 40
0.4444444444444444
 40
0.4444444444444444
 40
0.4444444444444444
 40
0.5
 40
0.5
 40
0.5
 40
0.5
 40
0.5555555555555556
 40
0.5555555555555556
 40
0.5555555555555556
 40
0.5555555555555556
 40
0.6111111111111112
 40
0.6111111111111112
 40
0.6111111111111112
 40
0.6111111111111112
 40
0.6666666666666666
 40
0.6666666666666666
 40
0.6666666666666666
 40
0.6666666666666666
 40
0.7222222222222222
 40
0.7222222222222222
 40
0.7222222222222222
 40
0.7222222222222222
 40
0.7777777777777778
 40
0.7777777777777778
 40
0.7777777777777778
 40
0.7777777777777778
 40
0.8333333333333334
 40
0.8333333333333334
 40
0.8333333333333334
 40
0.8333333333333334
 40
0.8888888888888888
 40
0.8888888888888888
 40
0.8888888888888888
 40
0.8888888888888888
 40
1.0
 40
1.0
 40
1.0
 40
1.0
 10
-1.35006
 20
0.60948
 30
0.0
 10
-1.35006
 20
0.60948
 30
0.0
 10
0.00094
 20
0.60948
 30
0.0
 10
0.00094
 20
0.60948
 30
0.0
 10
0.00094
 20
0.60948
 30
0.0
 10
0.00094
 20
0.60948
 30
0.0
 10
0.00094
 20
1.61139
 30
0.0
 10
0.00094
 20
1.61139
 30
0.0
 10
0.00094
 20
1.61139
 30
0.0
 10
-0.01691
 20
1.65349
 30
0.0
 10
-0.05262
 20
1.67033
 30
0.0
 10
-0.07643
 20
1.704
 30
0.0
 10
-0.07643
 20
1.704
 30
0.0
 10
-0.07643
 20
1.704
 30
0.0
 10
-0.49899
 20
2.12497
 30
0.0
 10
-0.49899
 20
2.12497
 30
0.0
 10
-0.49899
 20
2.12497
 30
0.0
 10
-0.5585
 20
2.18391
 30
0.0
 10
-0.60612
 20
2.23443
 30
0.0
 10
-0.66563
 20
2.30178
 30
0.0
 10
-0.66563
 20
2.30178
 30
0.0
 10
-0.66563
 20
2.30178
 30
0.0
 10
-1.2965
 20
2.93324
 30
0.0
 10
-1.2965
 20
2.93324
 30
0.0
 10
-1.2965
 20
2.93324
 30
0.0
 10
-1.32626
 20
2.9585
 30
0.0
 10
-1.31435
 20
2.9585
 30
0.0
 10
-1.35006
 20
2.96691
 30
0.0
 10
-1.35006
 20
2.96691
 30
0.0
 10
-1.35006
 20
2.96691
 30
0.0
 10
-5.78994
 20
2.96691
 30
0.0
 10
-5.78994
 20
2.96691
 30
0.0
 10
-5.78994
 20
2.96691
 30
0.0
 10
-5.78994
 20
2.96691
 30
0.0
 10
-5.79589
 20
2.96691
 30
0.0
 10
-5.79589
 20
2.96691
 30
0.0
 10
-5.79589
 20
2.96691
 30
0.0
 10
-5.79589
 20
2.96691
 30
0.0
 10
-5.79589
 20
2.96475
 30
0.0
 10
-5.79589
 20
2.96475
 30
0.0
 10
-5.79589
 20
2.96475
 30
0.0
 10
-5.8499
 20
2.94284
 30
0.0
 10
-5.93429
 20
2.84752
 30
0.0
 10
-5.97444
 20
2.80695
 30
0.0
 10
-5.97444
 20
2.80695
 30
0.0
 10
-5.97444
 20
2.80695
 30
0.0
 10
-6.99811
 20
1.77136
 30
0.0
 10
-6.99811
 20
1.77136
 30
0.0
 10
-6.99811
 20
1.77136
 30
0.0
 10
-7.08143
 20
1.68717
 30
0.0
 10
-7.1469
 20
1.65349
 30
0.0
 10
-7.1469
 20
1.56929
 30
0.0
 10
-7.1469
 20
1.56929
 30
0.0
 10
-7.1469
 20
1.56929
 30
0.0
 10
-7.1469
 20
0.60948
 30
0.0
 10
-7.1469
 20
0.60948
 30
0.0
 10
-7.1469
 20
0.60948
 30
0.0
 10
-6.9386
 20
0.59264
 30
0.0
 10
-6.33749
 20
0.60948
 30
0.0
 10
-6.12323
 20
0.60948
 30
0.0
 10
-6.12323
 20
0.60948
 30
0.0
 10
-6.12323
 20
0.60948
 30
0.0
 10
-5.79589
 20
0.60948
 30
0.0
 10
-5.79589
 20
0.60948
 30
0.0
 10
-5.79589
 20
0.60948
 30
0.0
 10
-5.79589
 20
0.60948
 30
0.0
 10
-1.35006
 20
0.60948
 30
0.0
 10
-1.35006
 20
0.60948
 30
0.0
  0
SPLINE
  5
109
330
1F
100
AcDbEntity
  8
Warstwa 1
100
AcDbSpline
210
0.0
220
0.0
230
1.0
 70
    11
 71
     3
 72
   112
 73
   108
 74
     0
 42
0.0000000001
 43
0.0000000001
 40
0.0
 40
0.0
 40
0.0
 40
0.0
 40
0.0357142857142857
 40
0.0357142857142857
 40
0.0357142857142857
 40
0.0357142857142857
 40
0.0714285714285714
 40
0.0714285714285714
 40
0.0714285714285714
 40
0.0714285714285714
 40
0.1071428571428571
 40
0.1071428571428571
 40
0.1071428571428571
 40
0.1071428571428571
 40
0.1428571428571428
 40
0.1428571428571428
 40
0.1428571428571428
 40
0.1428571428571428
 40
0.1785714285714286
 40
0.1785714285714286
 40
0.1785714285714286
 40
0.1785714285714286
 40
0.2142857142857143
 40
0.2142857142857143
 40
0.2142857142857143
 40
0.2142857142857143
 40
0.25
 40
0.25
 40
0.25
 40
0.25
 40
0.2857142857142857
 40
0.2857142857142857
 40
0.2857142857142857
 40
0.2857142857142857
 40
0.3214285714285715
 40
0.3214285714285715
 40
0.3214285714285715
 40
0.3214285714285715
 40
0.3571428571428572
 40
0.3571428571428572
 40
0.3571428571428572
 40
0.3571428571428572
 40
0.3928571428571428
 40
0.3928571428571428
 40
0.3928571428571428
 40
0.3928571428571428
 40
0.4285714285714285
 40
0.4285714285714285
 40
0.4285714285714285
 40
0.4285714285714285
 40
0.4642857142857143
 40
0.4642857142857143
 40
0.4642857142857143
 40
0.4642857142857143
 40
0.5
 40
0.5
 40
0.5
 40
0.5
 40
0.5357142857142857
 40
0.5357142857142857
 40
0.5357142857142857
 40
0.5357142857142857
 40
0.5714285714285714
 40
0.5714285714285714
 40
0.5714285714285714
 40
0.5714285714285714
 40
0.6071428571428571
 40
0.6071428571428571
 40
0.6071428571428571
 40
0.6071428571428571
 40
0.6428571428571429
 40
0.6428571428571429
 40
0.6428571428571429
 40
0.6428571428571429
 40
0.6785714285714286
 40
0.6785714285714286
 40
0.6785714285714286
 40
0.6785714285714286
 40
0.7142857142857143
 40
0.7142857142857143
 40
0.7142857142857143
 40
0.7142857142857143
 40
0.75
 40
0.75
 40
0.75
 40
0.75
 40
0.7857142857142857
 40
0.7857142857142857
 40
0.7857142857142857
 40
0.7857142857142857
 40
0.8214285714285714
 40
0.8214285714285714
 40
0.8214285714285714
 40
0.8214285714285714
 40
0.8571428571428571
 40
0.8571428571428571
 40
0.8571428571428571
 40
0.8571428571428571
 40
0.8928571428571429
 40
0.8928571428571429
 40
0.8928571428571429
 40
0.8928571428571429
 40
0.9285714285714286
 40
0.9285714285714286
 40
0.9285714285714286
 40
0.9285714285714286
 40
1.0
 40
1.0
 40
1.0
 40
1.0
 10
3.87542
 20
-7.11111
 30
0.0
 10
3.87542
 20
-7.11111
 30
0.0
 10
3.86947
 20
-8.12143
 30
0.0
 10
3.86947
 20
-8.12143
 30
0.0
 10
3.86947
 20
-8.12143
 30
0.0
 10
3.88732
 20
-8.12143
 30
0.0
 10
3.88137
 20
-8.11301
 30
0.0
 10
3.88137
 20
-8.12985
 30
0.0
 10
3.88137
 20
-8.12985
 30
0.0
 10
4.29203
 20
-8.12143
 30
0.0
 10
4.71459
 20
-8.12985
 30
0.0
 10
5.12525
 20
-8.12985
 30
0.0
 10
5.12525
 20
-8.12985
 30
0.0
 10
5.39903
 20
-8.12985
 30
0.0
 10
8.77952
 20
-8.11301
 30
0.0
 10
8.87475
 20
-8.13827
 30
0.0
 10
8.87475
 20
-8.13827
 30
0.0
 10
8.87475
 20
-8.13827
 30
0.0
 10
8.8807
 20
-8.43295
 30
0.0
 10
8.8807
 20
-8.43295
 30
0.0
 10
8.8807
 20
-8.43295
 30
0.0
 10
8.9045
 20
-8.43295
 30
0.0
 10
8.8807
 20
-8.45821
 30
0.0
 10
8.91641
 20
-8.40769
 30
0.0
 10
8.91641
 20
-8.40769
 30
0.0
 10
8.91641
 20
-8.40769
 30
0.0
 10
8.91046
 20
-8.11301
 30
0.0
 10
8.91046
 20
-8.11301
 30
0.0
 10
8.91046
 20
-8.11301
 30
0.0
 10
8.84499
 20
-8.08776
 30
0.0
 10
4.39916
 20
-8.09618
 30
0.0
 10
3.91113
 20
-8.1046
 30
0.0
 10
3.91113
 20
-8.1046
 30
0.0
 10
3.91113
 20
-8.1046
 30
0.0
 10
3.91113
 20
-7.14478
 30
0.0
 10
3.91113
 20
-7.14478
 30
0.0
 10
3.91113
 20
-7.14478
 30
0.0
 10
4.08968
 20
-7.14478
 30
0.0
 10
8.83904
 20
-7.1532
 30
0.0
 10
8.9045
 20
-7.13636
 30
0.0
 10
8.9045
 20
-7.13636
 30
0.0
 10
8.92236
 20
-7.09427
 30
0.0
 10
8.92236
 20
-6.31126
 30
0.0
 10
8.91046
 20
-6.21023
 30
0.0
 10
8.91046
 20
-6.21023
 30
0.0
 10
8.91046
 20
-6.21023
 30
0.0
 10
8.91046
 20
-4.9389
 30
0.0
 10
8.91046
 20
-4.9389
 30
0.0
 10
8.91046
 20
-4.9389
 30
0.0
 10
8.91046
 20
-4.9389
 30
0.0
 10
8.91046
 20
-3.52444
 30
0.0
 10
8.91046
 20
-3.52444
 30
0.0
 10
8.91046
 20
-3.52444
 30
0.0
 10
8.91046
 20
-3.52444
 30
0.0
 10
8.91046
 20
-1.08282
 30
0.0
 10
8.91046
 20
-1.08282
 30
0.0
 10
8.91046
 20
-1.08282
 30
0.0
 10
8.91046
 20
-1.08282
 30
0.0
 10
8.91641
 20
6.35993
 30
0.0
 10
8.91641
 20
6.35993
 30
0.0
 10
8.91641
 20
6.35993
 30
0.0
 10
8.91641
 20
6.35993
 30
0.0
 10
9.87461
 20
6.35993
 30
0.0
 10
9.87461
 20
6.35993
 30
0.0
 10
9.87461
 20
6.35993
 30
0.0
 10
9.87461
 20
6.35993
 30
0.0
 10
9.88056
 20
-2.71618
 30
0.0
 10
9.88056
 20
-2.71618
 30
0.0
 10
9.88056
 20
-2.71618
 30
0.0
 10
9.86271
 20
-2.81721
 30
0.0
 10
9.88056
 20
-5.00626
 30
0.0
 10
9.88056
 20
-5.20832
 30
0.0
 10
9.88056
 20
-5.20832
 30
0.0
 10
9.88056
 20
-5.32619
 30
0.0
 10
9.89247
 20
-5.98291
 30
0.0
 10
9.88056
 20
-6.04184
 30
0.0
 10
9.88056
 20
-6.04184
 30
0.0
 10
9.88056
 20
-6.04184
 30
0.0
 10
9.87461
 20
-6.95114
 30
0.0
 10
9.87461
 20
-6.95114
 30
0.0
 10
9.87461
 20
-6.95114
 30
0.0
 10
9.87461
 20
-6.95114
 30
0.0
 10
9.88651
 20
-7.05217
 30
0.0
 10
9.88651
 20
-7.05217
 30
0.0
 10
9.88651
 20
-7.05217
 30
0.0
 10
9.88651
 20
-7.05217
 30
0.0
 10
9.90437
 20
-6.99323
 30
0.0
 10
9.90437
 20
-6.99323
 30
0.0
 10
9.90437
 20
-6.99323
 30
0.0
 10
9.90437
 20
-6.99323
 30
0.0
 10
9.90437
 20
6.39361
 30
0.0
 10
9.90437
 20
6.39361
 30
0.0
 10
9.90437
 20
6.39361
 30
0.0
 10
9.8389
 20
6.40203
 30
0.0
 10
8.95807
 20
6.40203
 30
0.0
 10
8.8807
 20
6.39361
 30
0.0
 10
8.8807
 20
6.39361
 30
0.0
 10
8.86284
 20
6.19154
 30
0.0
 10
8.8807
 20
5.01283
 30
0.0
 10
8.8807
 20
4.70973
 30
0.0
 10
8.8807
 20
4.70973
 30
0.0
 10
8.8807
 20
3.04269
 30
0.0
 10
8.8926
 20
-7.07743
 30
0.0
 10
8.86879
 20
-7.10269
 30
0.0
 10
8.86879
 20
-7.10269
 30
0.0
 10
8.82713
 20
-7.13636
 30
0.0
 10
4.53009
 20
-7.08585
 30
0.0
 10
3.87542
 20
-7.11111
 30
0.0
  0
SPLINE
  5
10A
330
1F
100
AcDbEntity
  8
Warstwa 1
 62
     7
100
AcDbSpline
210
0.0
220
0.0
230
1.0
 70
    11
 71
     3
 72
    20
 73
    16
 74
     0
 42
0.0000000001
 43
0.0000000001
 40
0.0
 40
0.0
 40
0.0
 40
0.0
 40
0.2
 40
0.2
 40
0.2
 40
0.2
 40
0.4
 40
0.4
 40
0.4
 40
0.4
 40
0.6
 40
0.6
 40
0.6
 40
0.6
 40
1.0
 40
1.0
 40
1.0
 40
1.0
 10
-0.22522
 20
10.78854
 30
0.0
 10
-0.22522
 20
10.78854
 30
0.0
 10
-0.22522
 20
10.84747
 30
0.0
 10
-0.22522
 20
10.84747
 30
0.0
 10
-0.22522
 20
10.84747
 30
0.0
 10
-0.22522
 20
10.84747
 30
0.0
 10
-6.86718
 20
10.84747
 30
0.0
 10
-6.86718
 20
10.84747
 30
0.0
 10
-6.86718
 20
10.84747
 30
0.0
 10
-6.92669
 20
10.84747
 30
0.0
 10
-6.91479
 20
10.83905
 30
0.0
 10
-6.91479
 20
10.78854
 30
0.0
 10
-6.91479
 20
10.78854
 30
0.0
 10
-6.91479
 20
10.78854
 30
0.0
 10
-0.22522
 20
10.78854
 30
0.0
 10
-0.22522
 20
10.78854
 30
0.0
  0
SPLINE
  5
10B
330
1F
100
AcDbEntity
  8
Warstwa 1
 62
     7
100
AcDbSpline
210
0.0
220
0.0
230
1.0
 70
    11
 71
     3
 72
    36
 73
    32
 74
     0
 42
0.0000000001
 43
0.0000000001
 40
0.0
 40
0.0
 40
0.0
 40
0.0
 40
0.1111111111111111
 40
0.1111111111111111
 40
0.1111111111111111
 40
0.1111111111111111
 40
0.2222222222222222
 40
0.2222222222222222
 40
0.2222222222222222
 40
0.2222222222222222
 40
0.3333333333333333
 40
0.3333333333333333
 40
0.3333333333333333
 40
0.3333333333333333
 40
0.4444444444444444
 40
0.4444444444444444
 40
0.4444444444444444
 40
0.4444444444444444
 40
0.5555555555555556
 40
0.5555555555555556
 40
0.5555555555555556
 40
0.5555555555555556
 40
0.6666666666666666
 40
0.6666666666666666
 40
0.6666666666666666
 40
0.6666666666666666
 40
0.7777777777777778
 40
0.7777777777777778
 40
0.7777777777777778
 40
0.7777777777777778
 40
1.0
 40
1.0
 40
1.0
 40
1.0
 10
-7.14757
 20
5.78999
 30
0.0
 10
-7.14757
 20
5.78999
 30
0.0
 10
-5.46163
 20
5.7822
 30
0.0
 10
-5.46163
 20
5.7822
 30
0.0
 10
-5.46163
 20
5.7822
 30
0.0
 10
-5.47069
 20
6.18734
 30
0.0
 10
-5.46163
 20
6.60806
 30
0.0
 10
-5.46163
 20
7.00541
 30
0.0
 10
-5.46163
 20
7.00541
 30
0.0
 10
-5.46163
 20
7.00541
 30
0.0
 10
-5.46163
 20
10.65494
 30
0.0
 10
-5.46163
 20
10.65494
 30
0.0
 10
-5.46163
 20
10.65494
 30
0.0
 10
-5.46163
 20
10.66272
 30
0.0
 10
-5.46163
 20
10.6861
 30
0.0
 10
-5.46163
 20
10.69389
 30
0.0
 10
-5.46163
 20
10.69389
 30
0.0
 10
-5.46163
 20
10.69389
 30
0.0
 10
-5.47069
 20
10.73285
 30
0.0
 10
-5.47069
 20
10.73285
 30
0.0
 10
-5.47069
 20
10.73285
 30
0.0
 10
-5.47069
 20
10.73285
 30
0.0
 10
-6.95547
 20
10.73285
 30
0.0
 10
-6.95547
 20
10.73285
 30
0.0
 10
-6.95547
 20
10.73285
 30
0.0
 10
-6.95547
 20
10.73285
 30
0.0
 10
-7.14757
 20
10.69285
 30
0.0
 10
-7.14757
 20
10.69285
 30
0.0
 10
-7.14757
 20
10.69285
 30
0.0
 10
-7.14757
 20
10.69285
 30
0.0
 10
-7.14757
 20
5.78999
 30
0.0
 10
-7.14757
 20
5.78999
 30
0.0
  0
SPLINE
  5
10C
330
1F
100
AcDbEntity
  8
Warstwa 1
 62
     7
100
AcDbSpline
210
0.0
220
0.0
230
1.0
 70
    11
 71
     3
 72
    80
 73
    76
 74
     0
 42
0.0000000001
 43
0.0000000001
 40
0.0
 40
0.0
 40
0.0
 40
0.0
 40
0.05
 40
0.05
 40
0.05
 40
0.05
 40
0.1
 40
0.1
 40
0.1
 40
0.1
 40
0.15
 40
0.15
 40
0.15
 40
0.15
 40
0.2
 40
0.2
 40
0.2
 40
0.2
 40
0.25
 40
0.25
 40
0.25
 40
0.25
 40
0.3
 40
0.3
 40
0.3
 40
0.3
 40
0.35
 40
0.35
 40
0.35
 40
0.35
 40
0.4
 40
0.4
 40
0.4
 40
0.4
 40
0.45
 40
0.45
 40
0.45
 40
0.45
 40
0.5
 40
0.5
 40
0.5
 40
0.5
 40
0.55
 40
0.55
 40
0.55
 40
0.55
 40
0.6
 40
0.6
 40
0.6
 40
0.6
 40
0.65
 40
0.65
 40
0.65
 40
0.65
 40
0.7
 40
0.7
 40
0.7
 40
0.7
 40
0.75
 40
0.75
 40
0.75
 40
0.75
 40
0.8
 40
0.8
 40
0.8
 40
0.8
 40
0.85
 40
0.85
 40
0.85
 40
0.85
 40
0.9
 40
0.9
 40
0.9
 40
0.9
 40
1.0
 40
1.0
 40
1.0
 40
1.0
 10
-5.40309
 20
5.79583
 30
0.0
 10
-5.40309
 20
5.79583
 30
0.0
 10
-4.73056
 20
5.79583
 30
0.0
 10
-4.73056
 20
5.79583
 30
0.0
 10
-4.73056
 20
5.79583
 30
0.0
 10
-4.71271
 20
6.32625
 30
0.0
 10
-4.76032
 20
10.56121
 30
0.0
 10
-4.71271
 20
10.65383
 30
0.0
 10
-4.71271
 20
10.65383
 30
0.0
 10
-4.6889
 20
10.67067
 30
0.0
 10
-4.49845
 20
10.67908
 30
0.0
 10
-4.45679
 20
10.67908
 30
0.0
 10
-4.45679
 20
10.67908
 30
0.0
 10
-4.45679
 20
10.67908
 30
0.0
 10
-2.57014
 20
10.67908
 30
0.0
 10
-2.57014
 20
10.67908
 30
0.0
 10
-2.57014
 20
10.67908
 30
0.0
 10
-2.40944
 20
10.65383
 30
0.0
 10
-2.43325
 20
10.65383
 30
0.0
 10
-2.4273
 20
10.59489
 30
0.0
 10
-2.4273
 20
10.59489
 30
0.0
 10
-2.42135
 20
10.57805
 30
0.0
 10
-2.4273
 20
10.53595
 30
0.0
 10
-2.4273
 20
10.51912
 30
0.0
 10
-2.4273
 20
10.51912
 30
0.0
 10
-2.4273
 20
10.51912
 30
0.0
 10
-2.4273
 20
6.09051
 30
0.0
 10
-2.4273
 20
6.09051
 30
0.0
 10
-2.4273
 20
6.09051
 30
0.0
 10
-2.4273
 20
6.04841
 30
0.0
 10
-2.43325
 20
5.82109
 30
0.0
 10
-2.4154
 20
5.79583
 30
0.0
 10
-2.4154
 20
5.79583
 30
0.0
 10
-2.39159
 20
5.77899
 30
0.0
 10
-1.78453
 20
5.77899
 30
0.0
 10
-1.74882
 20
5.79583
 30
0.0
 10
-1.74882
 20
5.79583
 30
0.0
 10
-1.72501
 20
5.81267
 30
0.0
 10
-1.73692
 20
5.85477
 30
0.0
 10
-1.73692
 20
5.92212
 30
0.0
 10
-1.73692
 20
5.92212
 30
0.0
 10
-1.73692
 20
5.98106
 30
0.0
 10
-1.73692
 20
6.03158
 30
0.0
 10
-1.73692
 20
6.08209
 30
0.0
 10
-1.73692
 20
6.08209
 30
0.0
 10
-1.73692
 20
6.08209
 30
0.0
 10
-1.73692
 20
7.00823
 30
0.0
 10
-1.73692
 20
7.00823
 30
0.0
 10
-1.73692
 20
7.00823
 30
0.0
 10
-1.73692
 20
7.42078
 30
0.0
 10
-1.73692
 20
7.82491
 30
0.0
 10
-1.73692
 20
8.23746
 30
0.0
 10
-1.73692
 20
8.23746
 30
0.0
 10
-1.73692
 20
8.27956
 30
0.0
 10
-1.71906
 20
10.64015
 30
0.0
 10
-1.74287
 20
10.7075
 30
0.0
 10
-1.74287
 20
10.7075
 30
0.0
 10
-1.75477
 20
10.7496
 30
0.0
 10
-4.48655
 20
10.72434
 30
0.0
 10
-4.93887
 20
10.72434
 30
0.0
 10
-4.93887
 20
10.72434
 30
0.0
 10
-5.0698
 20
10.72434
 30
0.0
 10
-5.27215
 20
10.74118
 30
0.0
 10
-5.40309
 20
10.72434
 30
0.0
 10
-5.40309
 20
10.72434
 30
0.0
 10
-5.42689
 20
10.62331
 30
0.0
 10
-5.40309
 20
9.66034
 30
0.0
 10
-5.40309
 20
9.47511
 30
0.0
 10
-5.40309
 20
9.47511
 30
0.0
 10
-5.40309
 20
9.47511
 30
0.0
 10
-5.40309
 20
6.40203
 30
0.0
 10
-5.40309
 20
6.40203
 30
0.0
 10
-5.40309
 20
6.40203
 30
0.0
 10
-5.40309
 20
6.2168
 30
0.0
 10
-5.42094
 20
5.97264
 30
0.0
 10
-5.40309
 20
5.79583
 30
0.0
  0
SPLINE
  5
10D
330
1F
100
AcDbEntity
  8
Warstwa 1
 62
     7
100
AcDbSpline
210
0.0
220
0.0
230
1.0
 70
    11
 71
     3
 72
    32
 73
    28
 74
     0
 42
0.0000000001
 43
0.0000000001
 40
0.0
 40
0.0
 40
0.0
 40
0.0
 40
0.125
 40
0.125
 40
0.125
 40
0.125
 40
0.25
 40
0.25
 40
0.25
 40
0.25
 40
0.375
 40
0.375
 40
0.375
 40
0.375
 40
0.5
 40
0.5
 40
0.5
 40
0.5
 40
0.625
 40
0.625
 40
0.625
 40
0.625
 40
0.75
 40
0.75
 40
0.75
 40
0.75
 40
1.0
 40
1.0
 40
1.0
 40
1.0
 10
-4.677
 20
5.32435
 30
0.0
 10
-4.677
 20
5.32435
 30
0.0
 10
-2.46301
 20
5.31593
 30
0.0
 10
-2.46301
 20
5.31593
 30
0.0
 10
-2.46301
 20
5.31593
 30
0.0
 10
-2.47491
 20
5.75374
 30
0.0
 10
-2.46301
 20
6.20838
 30
0.0
 10
-2.46301
 20
6.63777
 30
0.0
 10
-2.46301
 20
6.63777
 30
0.0
 10
-2.46301
 20
6.63777
 30
0.0
 10
-2.46301
 20
10.52754
 30
0.0
 10
-2.46301
 20
10.52754
 30
0.0
 10
-2.46301
 20
10.52754
 30
0.0
 10
-2.46301
 20
10.53595
 30
0.0
 10
-2.46301
 20
10.56121
 30
0.0
 10
-2.46301
 20
10.56963
 30
0.0
 10
-2.46301
 20
10.56963
 30
0.0
 10
-2.46301
 20
10.56963
 30
0.0
 10
-2.47491
 20
10.61173
 30
0.0
 10
-2.47491
 20
10.61173
 30
0.0
 10
-2.47491
 20
10.61173
 30
0.0
 10
-2.47491
 20
10.61173
 30
0.0
 10
-4.677
 20
10.61173
 30
0.0
 10
-4.677
 20
10.61173
 30
0.0
 10
-4.677
 20
10.61173
 30
0.0
 10
-4.677
 20
10.61173
 30
0.0
 10
-4.677
 20
5.32435
 30
0.0
 10
-4.677
 20
5.32435
 30
0.0
  0
SPLINE
  5
10E
330
1F
100
AcDbEntity
  8
Warstwa 1
 62
     7
100
AcDbSpline
210
0.0
220
0.0
230
1.0
 70
    11
 71
     3
 72
    36
 73
    32
 74
     0
 42
0.0000000001
 43
0.0000000001
 40
0.0
 40
0.0
 40
0.0
 40
0.0
 40
0.1111111111111111
 40
0.1111111111111111
 40
0.1111111111111111
 40
0.1111111111111111
 40
0.2222222222222222
 40
0.2222222222222222
 40
0.2222222222222222
 40
0.2222222222222222
 40
0.3333333333333333
 40
0.3333333333333333
 40
0.3333333333333333
 40
0.3333333333333333
 40
0.4444444444444444
 40
0.4444444444444444
 40
0.4444444444444444
 40
0.4444444444444444
 40
0.5555555555555556
 40
0.5555555555555556
 40
0.5555555555555556
 40
0.5555555555555556
 40
0.6666666666666666
 40
0.6666666666666666
 40
0.6666666666666666
 40
0.6666666666666666
 40
0.7777777777777778
 40
0.7777777777777778
 40
0.7777777777777778
 40
0.7777777777777778
 40
1.0
 40
1.0
 40
1.0
 40
1.0
 10
-1.68757
 20
5.78999
 30
0.0
 10
-1.68757
 20
5.78999
 30
0.0
 10
-0.00163
 20
5.7822
 30
0.0
 10
-0.00163
 20
5.7822
 30
0.0
 10
-0.00163
 20
5.7822
 30
0.0
 10
-0.01069
 20
6.18734
 30
0.0
 10
-0.00163
 20
6.60806
 30
0.0
 10
-0.00163
 20
7.00541
 30
0.0
 10
-0.00163
 20
7.00541
 30
0.0
 10
-0.00163
 20
7.00541
 30
0.0
 10
-0.00163
 20
10.61494
 30
0.0
 10
-0.00163
 20
10.61494
 30
0.0
 10
-0.00163
 20
10.61494
 30
0.0
 10
-0.00163
 20
10.62272
 30
0.0
 10
-0.00163
 20
10.6861
 30
0.0
 10
-0.00163
 20
10.69389
 30
0.0
 10
-0.00163
 20
10.69389
 30
0.0
 10
-0.00163
 20
10.69389
 30
0.0
 10
-0.01069
 20
10.69285
 30
0.0
 10
-0.01069
 20
10.69285
 30
0.0
 10
-0.01069
 20
10.69285
 30
0.0
 10
-0.01069
 20
10.69285
 30
0.0
 10
-0.15769
 20
10.73285
 30
0.0
 10
-0.15769
 20
10.73285
 30
0.0
 10
-0.15769
 20
10.73285
 30
0.0
 10
-0.15769
 20
10.73285
 30
0.0
 10
-1.68757
 20
10.73285
 30
0.0
 10
-1.68757
 20
10.73285
 30
0.0
 10
-1.68757
 20
10.73285
 30
0.0
 10
-1.68757
 20
10.73285
 30
0.0
 10
-1.68757
 20
5.78999
 30
0.0
 10
-1.68757
 20
5.78999
 30
0.0
  0
SPLINE
  5
10F
330
1F
100
AcDbEntity
  8
Warstwa 1
 62
     7
100
AcDbSpline
210
0.0
220
0.0
230
1.0
 70
    11
 71
     3
 72
    40
 73
    36
 74
     0
 42
0.0000000001
 43
0.0000000001
 40
0.0
 40
0.0
 40
0.0
 40
0.0
 40
0.1
 40
0.1
 40
0.1
 40
0.1
 40
0.2
 40
0.2
 40
0.2
 40
0.2
 40
0.3
 40
0.3
 40
0.3
 40
0.3
 40
0.4
 40
0.4
 40
0.4
 40
0.4
 40
0.5
 40
0.5
 40
0.5
 40
0.5
 40
0.6
 40
0.6
 40
0.6
 40
0.6
 40
0.7
 40
0.7
 40
0.7
 40
0.7
 40
0.8
 40
0.8
 40
0.8
 40
0.8
 40
1.0
 40
1.0
 40
1.0
 40
1.0
 10
-5.79589
 20
5.30751
 30
0.0
 10
-5.79589
 20
5.30751
 30
0.0
 10
-4.73056
 20
5.31593
 30
0.0
 10
-4.73056
 20
5.31593
 30
0.0
 10
-4.73056
 20
5.31593
 30
0.0
 10
-4.71271
 20
5.38328
 30
0.0
 10
-4.70675
 20
5.67796
 30
0.0
 10
-4.72461
 20
5.74532
 30
0.0
 10
-4.72461
 20
5.74532
 30
0.0
 10
-5.12932
 20
5.7369
 30
0.0
 10
-5.53402
 20
5.74532
 30
0.0
 10
-5.94468
 20
5.74532
 30
0.0
 10
-5.94468
 20
5.74532
 30
0.0
 10
-6.11133
 20
5.74532
 30
0.0
 10
-7.06358
 20
5.76216
 30
0.0
 10
-7.15285
 20
5.7369
 30
0.0
 10
-7.15285
 20
5.7369
 30
0.0
 10
-7.1588
 20
5.67796
 30
0.0
 10
-7.1588
 20
5.60219
 30
0.0
 10
-7.135
 20
5.56851
 30
0.0
 10
-7.135
 20
5.56851
 30
0.0
 10
-7.12309
 20
5.55167
 30
0.0
 10
-7.135
 20
5.56009
 30
0.0
 10
-7.11714
 20
5.54325
 30
0.0
 10
-7.11714
 20
5.54325
 30
0.0
 10
-7.03382
 20
5.45906
 30
0.0
 10
-7.02192
 20
5.45064
 30
0.0
 10
-6.90884
 20
5.38328
 30
0.0
 10
-6.90884
 20
5.38328
 30
0.0
 10
-6.61126
 20
5.20647
 30
0.0
 10
-6.15894
 20
5.23173
 30
0.0
 10
-5.79589
 20
5.24857
 30
0.0
 10
-5.79589
 20
5.24857
 30
0.0
 10
-5.79589
 20
5.24857
 30
0.0
 10
-5.79589
 20
5.30751
 30
0.0
 10
-5.79589
 20
5.30751
 30
0.0
  0
SPLINE
  5
110
330
1F
100
AcDbEntity
  8
Warstwa 1
 62
     7
100
AcDbSpline
210
0.0
220
0.0
230
1.0
 70
    11
 71
     3
 72
    40
 73
    36
 74
     0
 42
0.0000000001
 43
0.0000000001
 40
0.0
 40
0.0
 40
0.0
 40
0.0
 40
0.1
 40
0.1
 40
0.1
 40
0.1
 40
0.2
 40
0.2
 40
0.2
 40
0.2
 40
0.3
 40
0.3
 40
0.3
 40
0.3
 40
0.4
 40
0.4
 40
0.4
 40
0.4
 40
0.5
 40
0.5
 40
0.5
 40
0.5
 40
0.6
 40
0.6
 40
0.6
 40
0.6
 40
0.7
 40
0.7
 40
0.7
 40
0.7
 40
0.8
 40
0.8
 40
0.8
 40
0.8
 40
1.0
 40
1.0
 40
1.0
 40
1.0
 10
-1.34409
 20
5.30751
 30
0.0
 10
-1.34409
 20
5.30751
 30
0.0
 10
-2.40942
 20
5.31593
 30
0.0
 10
-2.40942
 20
5.31593
 30
0.0
 10
-2.40942
 20
5.31593
 30
0.0
 10
-2.42727
 20
5.38328
 30
0.0
 10
-2.43323
 20
5.67796
 30
0.0
 10
-2.41537
 20
5.74532
 30
0.0
 10
-2.41537
 20
5.74532
 30
0.0
 10
-2.01066
 20
5.7369
 30
0.0
 10
-1.60596
 20
5.74532
 30
0.0
 10
-1.1953
 20
5.74532
 30
0.0
 10
-1.1953
 20
5.74532
 30
0.0
 10
-1.02865
 20
5.74532
 30
0.0
 10
-0.0764
 20
5.76216
 30
0.0
 10
0.01287
 20
5.7369
 30
0.0
 10
0.01287
 20
5.7369
 30
0.0
 10
0.01882
 20
5.67796
 30
0.0
 10
0.01882
 20
5.60219
 30
0.0
 10
-0.00498
 20
5.56851
 30
0.0
 10
-0.00498
 20
5.56851
 30
0.0
 10
-0.01689
 20
5.55167
 30
0.0
 10
-0.00498
 20
5.56009
 30
0.0
 10
-0.02284
 20
5.54325
 30
0.0
 10
-0.02284
 20
5.54325
 30
0.0
 10
-0.10616
 20
5.45906
 30
0.0
 10
-0.11806
 20
5.45064
 30
0.0
 10
-0.23114
 20
5.38328
 30
0.0
 10
-0.23114
 20
5.38328
 30
0.0
 10
-0.52872
 20
5.20647
 30
0.0
 10
-0.98104
 20
5.23173
 30
0.0
 10
-1.34409
 20
5.24857
 30
0.0
 10
-1.34409
 20
5.24857
 30
0.0
 10
-1.34409
 20
5.24857
 30
0.0
 10
-1.34409
 20
5.30751
 30
0.0
 10
-1.34409
 20
5.30751
 30
0.0
  0
SPLINE
  5
111
330
1F
100
AcDbEntity
  8
Warstwa 1
 62
   250
100
AcDbSpline
210
0.0
220
0.0
230
1.0
 70
    11
 71
     3
 72
    32
 73
    28
 74
     0
 42
0.0000000001
 43
0.0000000001
 40
0.0
 40
0.0
 40
0.0
 40
0.0
 40
0.125
 40
0.125
 40
0.125
 40
0.125
 40
0.25
 40
0.25
 40
0.25
 40
0.25
 40
0.375
 40
0.375
 40
0.375
 40
0.375
 40
0.5
 40
0.5
 40
0.5
 40
0.5
 40
0.625
 40
0.625
 40
0.625
 40
0.625
 40
0.75
 40
0.75
 40
0.75
 40
0.75
 40
1.0
 40
1.0
 40
1.0
 40
1.0
 10
-5.75423
 20
5.26541
 30
0.0
 10
-5.74233
 20
5.21489
 30
0.0
 10
-5.73638
 20
5.23173
 30
0.0
 10
-5.58164
 20
5.23173
 30
0.0
 10
-5.58164
 20
5.23173
 30
0.0
 10
-5.55188
 20
5.23173
 30
0.0
 10
-5.51617
 20
5.23173
 30
0.0
 10
-5.48641
 20
5.23173
 30
0.0
 10
-5.48641
 20
5.23173
 30
0.0
 10
-5.4388
 20
5.23173
 30
0.0
 10
-5.41499
 20
5.22331
 30
0.0
 10
-5.39119
 20
5.25699
 30
0.0
 10
-5.39119
 20
5.25699
 30
0.0
 10
-5.41499
 20
5.29067
 30
0.0
 10
-5.4626
 20
5.27383
 30
0.0
 10
-5.56378
 20
5.28225
 30
0.0
 10
-5.56378
 20
5.28225
 30
0.0
 10
-5.59354
 20
5.28225
 30
0.0
 10
-5.62925
 20
5.28225
 30
0.0
 10
-5.66496
 20
5.28225
 30
0.0
 10
-5.66496
 20
5.28225
 30
0.0
 10
-5.67091
 20
5.28225
 30
0.0
 10
-5.70067
 20
5.28225
 30
0.0
 10
-5.70662
 20
5.28225
 30
0.0
 10
-5.70662
 20
5.28225
 30
0.0
 10
-5.75423
 20
5.27383
 30
0.0
 10
-5.72447
 20
5.29067
 30
0.0
 10
-5.75423
 20
5.26541
 30
0.0
  0
ELLIPSE
  5
112
330
1F
100
AcDbEntity
  8
Warstwa 1
 62
     7
370
    50
100
AcDbEllipse
 10
-6.45963
 20
9.65414
 30
0.0
 11
0.0
 21
0.94298
 31
0.0
210
0.0
220
0.0
230
1.0
 40
1.0
 41
0.0
 42
6.283185307179586
  0
ELLIPSE
  5
113
330
1F
100
AcDbEntity
  8
Warstwa 1
 62
     7
370
    25
100
AcDbEllipse
 10
-6.45963
 20
9.65414
 30
0.0
 11
0.0
 21
0.84297
 31
0.0
210
0.0
220
0.0
230
1.0
 40
1.0
 41
0.0
 42
6.283185307179586
  0
SPLINE
  5
114
330
1F
100
AcDbEntity
  8
Warstwa 1
 62
     7
370
    50
100
AcDbSpline
210
0.0
220
0.0
230
1.0
 70
    11
 71
     3
 72
    32
 73
    28
 74
     0
 42
0.0000000001
 43
0.0000000001
 40
0.0
 40
0.0
 40
0.0
 40
0.0
 40
0.125
 40
0.125
 40
0.125
 40
0.125
 40
0.25
 40
0.25
 40
0.25
 40
0.25
 40
0.375
 40
0.375
 40
0.375
 40
0.375
 40
0.5
 40
0.5
 40
0.5
 40
0.5
 40
0.625
 40
0.625
 40
0.625
 40
0.625
 40
0.75
 40
0.75
 40
0.75
 40
0.75
 40
1.0
 40
1.0
 40
1.0
 40
1.0
 10
-0.62963
 20
10.59712
 30
0.0
 10
-0.53842
 20
10.59712
 30
0.0
 10
-0.45026
 20
10.58413
 30
0.0
 10
-0.36684
 20
10.55997
 30
0.0
 10
-0.36684
 20
10.55997
 30
0.0
 10
-0.36684
 20
10.55997
 30
0.0
 10
0.35699
 20
10.55997
 30
0.0
 10
0.35699
 20
10.55997
 30
0.0
 10
0.35699
 20
10.55997
 30
0.0
 10
0.35699
 20
10.55997
 30
0.0
 10
0.35699
 20
8.74545
 30
0.0
 10
0.35699
 20
8.74545
 30
0.0
 10
0.35699
 20
8.74545
 30
0.0
 10
0.35699
 20
8.74545
 30
0.0
 10
-0.37695
 20
8.74545
 30
0.0
 10
-0.37695
 20
8.74545
 30
0.0
 10
-0.37695
 20
8.74545
 30
0.0
 10
-0.45738
 20
8.72314
 30
0.0
 10
-0.5421
 20
8.71116
 30
0.0
 10
-0.62963
 20
8.71116
 30
0.0
 10
-0.62963
 20
8.71116
 30
0.0
 10
-1.15042
 20
8.71116
 30
0.0
 10
-1.57261
 20
9.13335
 30
0.0
 10
-1.57261
 20
9.65414
 30
0.0
 10
-1.57261
 20
9.65414
 30
0.0
 10
-1.57261
 20
10.17493
 30
0.0
 10
-1.15042
 20
10.59712
 30
0.0
 10
-0.62963
 20
10.59712
 30
0.0
  0
SPLINE
  5
115
330
1F
100
AcDbEntity
  8
Warstwa 1
 62
     7
370
    50
100
AcDbSpline
210
0.0
220
0.0
230
1.0
 70
    11
 71
     3
 72
    32
 73
    28
 74
     0
 42
0.0000000001
 43
0.0000000001
 40
0.0
 40
0.0
 40
0.0
 40
0.0
 40
0.125
 40
0.125
 40
0.125
 40
0.125
 40
0.25
 40
0.25
 40
0.25
 40
0.25
 40
0.375
 40
0.375
 40
0.375
 40
0.375
 40
0.5
 40
0.5
 40
0.5
 40
0.5
 40
0.625
 40
0.625
 40
0.625
 40
0.625
 40
0.75
 40
0.75
 40
0.75
 40
0.75
 40
1.0
 40
1.0
 40
1.0
 40
1.0
 10
-0.62963
 20
7.78712
 30
0.0
 10
-0.53842
 20
7.78712
 30
0.0
 10
-0.45026
 20
7.77413
 30
0.0
 10
-0.36684
 20
7.74997
 30
0.0
 10
-0.36684
 20
7.74997
 30
0.0
 10
-0.36684
 20
7.74997
 30
0.0
 10
0.35699
 20
7.74997
 30
0.0
 10
0.35699
 20
7.74997
 30
0.0
 10
0.35699
 20
7.74997
 30
0.0
 10
0.35699
 20
7.74997
 30
0.0
 10
0.35699
 20
5.93545
 30
0.0
 10
0.35699
 20
5.93545
 30
0.0
 10
0.35699
 20
5.93545
 30
0.0
 10
0.35699
 20
5.93545
 30
0.0
 10
-0.37695
 20
5.93545
 30
0.0
 10
-0.37695
 20
5.93545
 30
0.0
 10
-0.37695
 20
5.93545
 30
0.0
 10
-0.45738
 20
5.91314
 30
0.0
 10
-0.5421
 20
5.90116
 30
0.0
 10
-0.62963
 20
5.90116
 30
0.0
 10
-0.62963
 20
5.90116
 30
0.0
 10
-1.15042
 20
5.90116
 30
0.0
 10
-1.57261
 20
6.32335
 30
0.0
 10
-1.57261
 20
6.84414
 30
0.0
 10
-1.57261
 20
6.84414
 30
0.0
 10
-1.57261
 20
7.36493
 30
0.0
 10
-1.15042
 20
7.78712
 30
0.0
 10
-0.62963
 20
7.78712
 30
0.0
  0
ELLIPSE
  5
116
330
1F
100
AcDbEntity
  8
Warstwa 1
 62
     7
370
    50
100
AcDbEllipse
 10
-6.45963
 20
6.83414
 30
0.0
 11
0.0
 21
0.94298
 31
0.0
210
0.0
220
0.0
230
1.0
 40
1.0
 41
0.0
 42
6.283185307179586
  0
ELLIPSE
  5
117
330
1F
100
AcDbEntity
  8
Warstwa 1
 62
     7
370
    25
100
AcDbEllipse
 10
-6.45963
 20
6.83414
 30
0.0
 11
0.0
 21
0.84297
 31
0.0
210
0.0
220
0.0
230
1.0
 40
1.0
 41
0.0
 42
6.283185307179586
  0
SPLINE
  5
118
330
1F
100
AcDbEntity
  8
Warstwa 1
 62
     7
370
    50
100
AcDbSpline
210
0.0
220
0.0
230
1.0
 70
    11
 71
     3
 72
    28
 73
    24
 74
     0
 42
0.0000000001
 43
0.0000000001
 40
0.0
 40
0.0
 40
0.0
 40
0.0
 40
0.1428571428571428
 40
0.1428571428571428
 40
0.1428571428571428
 40
0.1428571428571428
 40
0.2857142857142857
 40
0.2857142857142857
 40
0.2857142857142857
 40
0.2857142857142857
 40
0.4285714285714285
 40
0.4285714285714285
 40
0.4285714285714285
 40
0.4285714285714285
 40
0.5714285714285714
 40
0.5714285714285714
 40
0.5714285714285714
 40
0.5714285714285714
 40
0.7142857142857143
 40
0.7142857142857143
 40
0.7142857142857143
 40
0.7142857142857143
 40
1.0
 40
1.0
 40
1.0
 40
1.0
 10
-1.38753
 20
0.55293
 30
0.0
 10
-1.38753
 20
0.55293
 30
0.0
 10
-1.38753
 20
3.35186
 30
0.0
 10
-1.38753
 20
3.35186
 30
0.0
 10
-1.38753
 20
3.35186
 30
0.0
 10
-1.38753
 20
3.51609
 30
0.0
 10
-1.51761
 20
3.65048
 30
0.0
 10
-1.6766
 20
3.65048
 30
0.0
 10
-1.6766
 20
3.65048
 30
0.0
 10
-1.6766
 20
3.65048
 30
0.0
 10
-5.45618
 20
3.65048
 30
0.0
 10
-5.45618
 20
3.65048
 30
0.0
 10
-5.45618
 20
3.65048
 30
0.0
 10
-5.61517
 20
3.65048
 30
0.0
 10
-5.74525
 20
3.51609
 30
0.0
 10
-5.74525
 20
3.35186
 30
0.0
 10
-5.74525
 20
3.35186
 30
0.0
 10
-5.74525
 20
3.35186
 30
0.0
 10
-5.74525
 20
0.55293
 30
0.0
 10
-5.74525
 20
0.55293
 30
0.0
 10
-5.74525
 20
0.55293
 30
0.0
 10
-5.74525
 20
0.55293
 30
0.0
 10
-1.38753
 20
0.55293
 30
0.0
 10
-1.38753
 20
0.55293
 30
0.0
  0
SPLINE
  5
119
330
1F
100
AcDbEntity
  8
Warstwa 1
 62
   250
370
    25
100
AcDbSpline
210
0.0
220
0.0
230
1.0
 70
     8
 71
     3
 72
    24
 73
    20
 74
     0
 42
0.0000000001
 43
0.0000000001
 40
0.0
 40
0.0
 40
0.0
 40
0.0
 40
0.1666666666666667
 40
0.1666666666666667
 40
0.1666666666666667
 40
0.1666666666666667
 40
0.3333333333333333
 40
0.3333333333333333
 40
0.3333333333333333
 40
0.3333333333333333
 40
0.5
 40
0.5
 40
0.5
 40
0.5
 40
0.6666666666666666
 40
0.6666666666666666
 40
0.6666666666666666
 40
0.6666666666666666
 40
1.0
 40
1.0
 40
1.0
 40
1.0
 10
-5.79096
 20
0.4815
 30
0.0
 10
-5.79096
 20
0.4815
 30
0.0
 10
-5.79096
 20
-2.16172
 30
0.0
 10
-5.79096
 20
-2.16172
 30
0.0
 10
-5.79096
 20
-2.16172
 30
0.0
 10
-5.79096
 20
-2.49176
 30
0.0
 10
-5.5222
 20
-2.76179
 30
0.0
 10
-5.1937
 20
-2.76179
 30
0.0
 10
-5.1937
 20
-2.76179
 30
0.0
 10
-5.1937
 20
-2.76179
 30
0.0
 10
-1.96561
 20
-2.76179
 30
0.0
 10
-1.96561
 20
-2.76179
 30
0.0
 10
-1.96561
 20
-2.76179
 30
0.0
 10
-1.63712
 20
-2.76179
 30
0.0
 10
-1.37012
 20
-2.49176
 30
0.0
 10
-1.36835
 20
-2.16172
 30
0.0
 10
-1.36835
 20
-2.16172
 30
0.0
 10
-1.36835
 20
-2.16172
 30
0.0
 10
-1.35413
 20
0.4815
 30
0.0
 10
-1.35413
 20
0.4815
 30
0.0
  0
SPLINE
  5
11A
330
1F
100
AcDbEntity
  8
Warstwa 1
 62
     7
100
AcDbSpline
210
0.0
220
0.0
230
1.0
 70
    11
 71
     3
 72
    24
 73
    20
 74
     0
 42
0.0000000001
 43
0.0000000001
 40
0.0
 40
0.0
 40
0.0
 40
0.0
 40
0.1666666666666667
 40
0.1666666666666667
 40
0.1666666666666667
 40
0.1666666666666667
 40
0.3333333333333333
 40
0.3333333333333333
 40
0.3333333333333333
 40
0.3333333333333333
 40
0.5
 40
0.5
 40
0.5
 40
0.5
 40
0.6666666666666666
 40
0.6666666666666666
 40
0.6666666666666666
 40
0.6666666666666666
 40
1.0
 40
1.0
 40
1.0
 40
1.0
 10
-6.92669
 20
-11.85123
 30
0.0
 10
-6.92669
 20
-11.85123
 30
0.0
 10
-0.22522
 20
-11.85965
 30
0.0
 10
-0.22522
 20
-11.85965
 30
0.0
 10
-0.22522
 20
-11.85965
 30
0.0
 10
-0.22522
 20
-11.85965
 30
0.0
 10
-0.22522
 20
-11.72494
 30
0.0
 10
-0.22522
 20
-11.72494
 30
0.0
 10
-0.22522
 20
-11.72494
 30
0.0
 10
-0.22522
 20
-11.72494
 30
0.0
 10
-6.49818
 20
-11.72494
 30
0.0
 10
-6.49818
 20
-11.72494
 30
0.0
 10
-6.49818
 20
-11.72494
 30
0.0
 10
-6.62316
 20
-11.72494
 30
0.0
 10
-6.79576
 20
-11.72494
 30
0.0
 10
-6.92074
 20
-11.72494
 30
0.0
 10
-6.92074
 20
-11.72494
 30
0.0
 10
-6.92074
 20
-11.72494
 30
0.0
 10
-6.92669
 20
-11.85123
 30
0.0
 10
-6.92669
 20
-11.85123
 30
0.0
  0
SPLINE
  5
11B
330
1F
100
AcDbEntity
  8
Warstwa 1
 62
     7
100
AcDbSpline
210
0.0
220
0.0
230
1.0
 70
    11
 71
     3
 72
    76
 73
    72
 74
     0
 42
0.0000000001
 43
0.0000000001
 40
0.0
 40
0.0
 40
0.0
 40
0.0
 40
0.0526315789473684
 40
0.0526315789473684
 40
0.0526315789473684
 40
0.0526315789473684
 40
0.1052631578947368
 40
0.1052631578947368
 40
0.1052631578947368
 40
0.1052631578947368
 40
0.1578947368421053
 40
0.1578947368421053
 40
0.1578947368421053
 40
0.1578947368421053
 40
0.2105263157894737
 40
0.2105263157894737
 40
0.2105263157894737
 40
0.2105263157894737
 40
0.2631578947368421
 40
0.2631578947368421
 40
0.2631578947368421
 40
0.2631578947368421
 40
0.3157894736842105
 40
0.3157894736842105
 40
0.3157894736842105
 40
0.3157894736842105
 40
0.3684210526315789
 40
0.3684210526315789
 40
0.3684210526315789
 40
0.3684210526315789
 40
0.4210526315789473
 40
0.4210526315789473
 40
0.4210526315789473
 40
0.4210526315789473
 40
0.4736842105263158
 40
0.4736842105263158
 40
0.4736842105263158
 40
0.4736842105263158
 40
0.5263157894736842
 40
0.5263157894736842
 40
0.5263157894736842
 40
0.5263157894736842
 40
0.5789473684210527
 40
0.5789473684210527
 40
0.5789473684210527
 40
0.5789473684210527
 40
0.631578947368421
 40
0.631578947368421
 40
0.631578947368421
 40
0.631578947368421
 40
0.6842105263157895
 40
0.6842105263157895
 40
0.6842105263157895
 40
0.6842105263157895
 40
0.7368421052631579
 40
0.7368421052631579
 40
0.7368421052631579
 40
0.7368421052631579
 40
0.7894736842105263
 40
0.7894736842105263
 40
0.7894736842105263
 40
0.7894736842105263
 40
0.8421052631578947
 40
0.8421052631578947
 40
0.8421052631578947
 40
0.8421052631578947
 40
0.8947368421052632
 40
0.8947368421052632
 40
0.8947368421052632
 40
0.8947368421052632
 40
1.0
 40
1.0
 40
1.0
 40
1.0
 10
0.0114
 20
-6.74294
 30
0.0
 10
-0.02508
 20
-6.58622
 30
0.0
 10
0.03518
 20
-6.59926
 30
0.0
 10
-0.06261
 20
-6.51761
 30
0.0
 10
-0.06261
 20
-6.51761
 30
0.0
 10
-0.36741
 20
-6.24537
 30
0.0
 10
-0.68392
 20
-6.24537
 30
0.0
 10
-1.12353
 20
-6.24537
 30
0.0
 10
-1.12353
 20
-6.24537
 30
0.0
 10
-1.12353
 20
-6.24537
 30
0.0
 10
-5.64268
 20
-6.2378
 30
0.0
 10
-5.64268
 20
-6.2378
 30
0.0
 10
-5.64268
 20
-6.2378
 30
0.0
 10
-5.88886
 20
-6.2378
 30
0.0
 10
-6.30502
 20
-6.23024
 30
0.0
 10
-6.53361
 20
-6.26806
 30
0.0
 10
-6.53361
 20
-6.26806
 30
0.0
 10
-6.66257
 20
-6.29075
 30
0.0
 10
-6.75634
 20
-6.321
 30
0.0
 10
-6.86185
 20
-6.37392
 30
0.0
 10
-6.86185
 20
-6.37392
 30
0.0
 10
-6.92633
 20
-6.40418
 30
0.0
 10
-7.09045
 20
-6.51006
 30
0.0
 10
-7.1139
 20
-6.55545
 30
0.0
 10
-7.1139
 20
-6.55545
 30
0.0
 10
-7.13734
 20
-6.59324
 30
0.0
 10
-7.11976
 20
-6.69156
 30
0.0
 10
-7.13148
 20
-6.73693
 30
0.0
 10
-7.13148
 20
-6.73693
 30
0.0
 10
-7.13148
 20
-6.73693
 30
0.0
 10
-7.1331
 20
-6.74282
 30
0.0
 10
-7.1331
 20
-6.74282
 30
0.0
 10
-7.1331
 20
-6.74282
 30
0.0
 10
-7.08425
 20
-6.74213
 30
0.0
 10
-7.03717
 20
-6.74123
 30
0.0
 10
-6.9957
 20
-6.74103
 30
0.0
 10
-6.9957
 20
-6.74103
 30
0.0
 10
-6.9957
 20
-6.74103
 30
0.0
 10
-6.97758
 20
-6.74116
 30
0.0
 10
-6.97758
 20
-6.74116
 30
0.0
 10
-6.97758
 20
-6.74116
 30
0.0
 10
-6.82973
 20
-6.75103
 30
0.0
 10
-6.68185
 20
-6.75152
 30
0.0
 10
-6.52841
 20
-6.75155
 30
0.0
 10
-6.52841
 20
-6.75155
 30
0.0
 10
-6.52841
 20
-6.75155
 30
0.0
 10
-6.52572
 20
-6.75155
 30
0.0
 10
-6.52572
 20
-6.75155
 30
0.0
 10
-6.52572
 20
-6.75155
 30
0.0
 10
-6.52572
 20
-6.75155
 30
0.0
 10
-6.50562
 20
-6.75155
 30
0.0
 10
-6.50562
 20
-6.75155
 30
0.0
 10
-6.50562
 20
-6.75155
 30
0.0
 10
-6.50562
 20
-6.75155
 30
0.0
 10
-0.60444
 20
-6.75155
 30
0.0
 10
-0.60444
 20
-6.75155
 30
0.0
 10
-0.60444
 20
-6.75155
 30
0.0
 10
-0.60444
 20
-6.75155
 30
0.0
 10
-0.60176
 20
-6.75155
 30
0.0
 10
-0.60176
 20
-6.75155
 30
0.0
 10
-0.60176
 20
-6.75155
 30
0.0
 10
-0.44833
 20
-6.75151
 30
0.0
 10
-0.30043
 20
-6.75105
 30
0.0
 10
-0.15258
 20
-6.74116
 30
0.0
 10
-0.15258
 20
-6.74116
 30
0.0
 10
-0.15258
 20
-6.74116
 30
0.0
 10
-0.13447
 20
-6.74103
 30
0.0
 10
-0.13447
 20
-6.74103
 30
0.0
 10
-0.13447
 20
-6.74103
 30
0.0
 10
-0.0906
 20
-6.74124
 30
0.0
 10
-0.04047
 20
-6.74223
 30
0.0
 10
0.0114
 20
-6.74294
 30
0.0
  0
SPLINE
  5
11C
330
1F
100
AcDbEntity
  8
Warstwa 1
 62
     7
100
AcDbSpline
210
0.0
220
0.0
230
1.0
 70
    11
 71
     3
 72
    40
 73
    36
 74
     0
 42
0.0000000001
 43
0.0000000001
 40
0.0
 40
0.0
 40
0.0
 40
0.0
 40
0.1
 40
0.1
 40
0.1
 40
0.1
 40
0.2
 40
0.2
 40
0.2
 40
0.2
 40
0.3
 40
0.3
 40
0.3
 40
0.3
 40
0.4
 40
0.4
 40
0.4
 40
0.4
 40
0.5
 40
0.5
 40
0.5
 40
0.5
 40
0.6
 40
0.6
 40
0.6
 40
0.6
 40
0.7
 40
0.7
 40
0.7
 40
0.7
 40
0.8
 40
0.8
 40
0.8
 40
0.8
 40
1.0
 40
1.0
 40
1.0
 40
1.0
 10
-0.10618
 20
-7.33843
 30
0.0
 10
0.04856
 20
-7.44788
 30
0.0
 10
0.04856
 20
-7.57417
 30
0.0
 10
-0.10618
 20
-7.66679
 30
0.0
 10
-0.10618
 20
-7.66679
 30
0.0
 10
-0.10618
 20
-7.66679
 30
0.0
 10
-0.10618
 20
-10.81564
 30
0.0
 10
-0.10618
 20
-10.81564
 30
0.0
 10
-0.10618
 20
-10.81564
 30
0.0
 10
-0.04667
 20
-10.84932
 30
0.0
 10
0.0069
 20
-10.89142
 30
0.0
 10
0.0069
 20
-10.98403
 30
0.0
 10
0.0069
 20
-10.98403
 30
0.0
 10
0.0069
 20
-11.08506
 30
0.0
 10
-0.05262
 20
-11.11032
 30
0.0
 10
-0.10618
 20
-11.15242
 30
0.0
 10
-0.10618
 20
-11.15242
 30
0.0
 10
-0.10618
 20
-11.15242
 30
0.0
 10
-0.10618
 20
-11.63232
 30
0.0
 10
-0.10618
 20
-11.63232
 30
0.0
 10
-0.10618
 20
-11.63232
 30
0.0
 10
-0.10618
 20
-11.63232
 30
0.0
 10
0.0069
 20
-11.63232
 30
0.0
 10
0.0069
 20
-11.63232
 30
0.0
 10
0.0069
 20
-11.63232
 30
0.0
 10
0.0069
 20
-11.63232
 30
0.0
 10
0.0069
 20
-6.85852
 30
0.0
 10
0.0069
 20
-6.85852
 30
0.0
 10
0.0069
 20
-6.85852
 30
0.0
 10
0.0069
 20
-6.85852
 30
0.0
 10
-0.10023
 20
-6.85852
 30
0.0
 10
-0.10023
 20
-6.85852
 30
0.0
 10
-0.10023
 20
-6.85852
 30
0.0
 10
-0.10023
 20
-6.85852
 30
0.0
 10
-0.10618
 20
-7.33843
 30
0.0
 10
-0.10618
 20
-7.33843
 30
0.0
  0
SPLINE
  5
11D
330
1F
100
AcDbEntity
  8
Warstwa 1
 62
     7
100
AcDbSpline
210
0.0
220
0.0
230
1.0
 70
    11
 71
     3
 72
    84
 73
    80
 74
     0
 42
0.0000000001
 43
0.0000000001
 40
0.0
 40
0.0
 40
0.0
 40
0.0
 40
0.0476190476190476
 40
0.0476190476190476
 40
0.0476190476190476
 40
0.0476190476190476
 40
0.0952380952380952
 40
0.0952380952380952
 40
0.0952380952380952
 40
0.0952380952380952
 40
0.1428571428571428
 40
0.1428571428571428
 40
0.1428571428571428
 40
0.1428571428571428
 40
0.1904761904761905
 40
0.1904761904761905
 40
0.1904761904761905
 40
0.1904761904761905
 40
0.2380952380952381
 40
0.2380952380952381
 40
0.2380952380952381
 40
0.2380952380952381
 40
0.2857142857142857
 40
0.2857142857142857
 40
0.2857142857142857
 40
0.2857142857142857
 40
0.3333333333333333
 40
0.3333333333333333
 40
0.3333333333333333
 40
0.3333333333333333
 40
0.3809523809523809
 40
0.3809523809523809
 40
0.3809523809523809
 40
0.3809523809523809
 40
0.4285714285714285
 40
0.4285714285714285
 40
0.4285714285714285
 40
0.4285714285714285
 40
0.4761904761904762
 40
0.4761904761904762
 40
0.4761904761904762
 40
0.4761904761904762
 40
0.5238095238095238
 40
0.5238095238095238
 40
0.5238095238095238
 40
0.5238095238095238
 40
0.5714285714285714
 40
0.5714285714285714
 40
0.5714285714285714
 40
0.5714285714285714
 40
0.6190476190476191
 40
0.6190476190476191
 40
0.6190476190476191
 40
0.6190476190476191
 40
0.6666666666666666
 40
0.6666666666666666
 40
0.6666666666666666
 40
0.6666666666666666
 40
0.7142857142857143
 40
0.7142857142857143
 40
0.7142857142857143
 40
0.7142857142857143
 40
0.7619047619047619
 40
0.7619047619047619
 40
0.7619047619047619
 40
0.7619047619047619
 40
0.8095238095238095
 40
0.8095238095238095
 40
0.8095238095238095
 40
0.8095238095238095
 40
0.8571428571428571
 40
0.8571428571428571
 40
0.8571428571428571
 40
0.8571428571428571
 40
0.9047619047619048
 40
0.9047619047619048
 40
0.9047619047619048
 40
0.9047619047619048
 40
1.0
 40
1.0
 40
1.0
 40
1.0
 10
-6.99811
 20
-7.64995
 30
0.0
 10
-6.98026
 20
-8.67711
 30
0.0
 10
-6.99216
 20
-9.79689
 30
0.0
 10
-6.99216
 20
-10.8409
 30
0.0
 10
-6.99216
 20
-10.8409
 30
0.0
 10
-7.02787
 20
-10.84932
 30
0.0
 10
-7.10524
 20
-10.90826
 30
0.0
 10
-7.09929
 20
-10.98403
 30
0.0
 10
-7.09929
 20
-10.98403
 30
0.0
 10
-7.09929
 20
-11.08506
 30
0.0
 10
-7.04572
 20
-11.07664
 30
0.0
 10
-6.99811
 20
-11.12716
 30
0.0
 10
-6.99811
 20
-11.12716
 30
0.0
 10
-6.99811
 20
-11.12716
 30
0.0
 10
-6.99811
 20
-11.37974
 30
0.0
 10
-6.99811
 20
-11.37974
 30
0.0
 10
-6.99811
 20
-11.37974
 30
0.0
 10
-6.99811
 20
-11.48077
 30
0.0
 10
-6.98026
 20
-11.60707
 30
0.0
 10
-7.01597
 20
-11.68284
 30
0.0
 10
-7.01597
 20
-11.68284
 30
0.0
 10
-6.54579
 20
-11.69126
 30
0.0
 10
-5.96849
 20
-11.68284
 30
0.0
 10
-5.48641
 20
-11.68284
 30
0.0
 10
-5.48641
 20
-11.68284
 30
0.0
 10
-5.48641
 20
-11.68284
 30
0.0
 10
-0.12999
 20
-11.68284
 30
0.0
 10
-0.12999
 20
-11.68284
 30
0.0
 10
-0.12999
 20
-11.68284
 30
0.0
 10
-0.1657
 20
-11.59865
 30
0.0
 10
-0.1538
 20
-11.53129
 30
0.0
 10
-0.1538
 20
-11.41342
 30
0.0
 10
-0.1538
 20
-11.41342
 30
0.0
 10
-0.1538
 20
-11.34606
 30
0.0
 10
-0.1657
 20
-11.1861
 30
0.0
 10
-0.14189
 20
-11.13558
 30
0.0
 10
-0.14189
 20
-11.13558
 30
0.0
 10
-0.12404
 20
-11.08506
 30
0.0
 10
-0.04072
 20
-11.09348
 30
0.0
 10
-0.04072
 20
-10.98403
 30
0.0
 10
-0.04072
 20
-10.98403
 30
0.0
 10
-0.04072
 20
-10.89142
 30
0.0
 10
-0.10618
 20
-10.883
 30
0.0
 10
-0.14785
 20
-10.8409
 30
0.0
 10
-0.14785
 20
-10.8409
 30
0.0
 10
-0.14785
 20
-10.8409
 30
0.0
 10
-0.1538
 20
-7.64995
 30
0.0
 10
-0.1538
 20
-7.64995
 30
0.0
 10
-0.1538
 20
-7.64995
 30
0.0
 10
-0.11214
 20
-7.61627
 30
0.0
 10
-0.04072
 20
-7.59101
 30
0.0
 10
-0.04072
 20
-7.4984
 30
0.0
 10
-0.04072
 20
-7.4984
 30
0.0
 10
-0.04072
 20
-7.38895
 30
0.0
 10
-0.13594
 20
-7.40579
 30
0.0
 10
-0.1538
 20
-7.34685
 30
0.0
 10
-0.1538
 20
-7.34685
 30
0.0
 10
-0.1538
 20
-7.34685
 30
0.0
 10
-0.1538
 20
-6.9343
 30
0.0
 10
-0.1538
 20
-6.9343
 30
0.0
 10
-0.1538
 20
-6.9343
 30
0.0
 10
-0.1538
 20
-6.85852
 30
0.0
 10
-0.14785
 20
-6.8501
 30
0.0
 10
-0.12999
 20
-6.80801
 30
0.0
 10
-0.12999
 20
-6.80801
 30
0.0
 10
-0.12999
 20
-6.80801
 30
0.0
 10
-7.01001
 20
-6.80801
 30
0.0
 10
-7.01001
 20
-6.80801
 30
0.0
 10
-7.01001
 20
-6.80801
 30
0.0
 10
-6.98621
 20
-6.87536
 30
0.0
 10
-6.98621
 20
-7.2374
 30
0.0
 10
-6.99216
 20
-7.33001
 30
0.0
 10
-6.99216
 20
-7.33001
 30
0.0
 10
-7.00406
 20
-7.4142
 30
0.0
 10
-7.09334
 20
-7.37211
 30
0.0
 10
-7.09929
 20
-7.48998
 30
0.0
 10
-7.09929
 20
-7.48998
 30
0.0
 10
-7.11119
 20
-7.60785
 30
0.0
 10
-7.03382
 20
-7.59943
 30
0.0
 10
-6.99811
 20
-7.64995
 30
0.0
  0
SPLINE
  5
11E
330
1F
100
AcDbEntity
  8
Warstwa 1
 62
     7
100
AcDbSpline
210
0.0
220
0.0
230
1.0
 70
    11
 71
     3
 72
    44
 73
    40
 74
     0
 42
0.0000000001
 43
0.0000000001
 40
0.0
 40
0.0
 40
0.0
 40
0.0
 40
0.0909090909090909
 40
0.0909090909090909
 40
0.0909090909090909
 40
0.0909090909090909
 40
0.1818181818181818
 40
0.1818181818181818
 40
0.1818181818181818
 40
0.1818181818181818
 40
0.2727272727272727
 40
0.2727272727272727
 40
0.2727272727272727
 40
0.2727272727272727
 40
0.3636363636363636
 40
0.3636363636363636
 40
0.3636363636363636
 40
0.3636363636363636
 40
0.4545454545454545
 40
0.4545454545454545
 40
0.4545454545454545
 40
0.4545454545454545
 40
0.5454545454545454
 40
0.5454545454545454
 40
0.5454545454545454
 40
0.5454545454545454
 40
0.6363636363636364
 40
0.6363636363636364
 40
0.6363636363636364
 40
0.6363636363636364
 40
0.7272727272727273
 40
0.7272727272727273
 40
0.7272727272727273
 40
0.7272727272727273
 40
0.8181818181818182
 40
0.8181818181818182
 40
0.8181818181818182
 40
0.8181818181818182
 40
1.0
 40
1.0
 40
1.0
 40
1.0
 10
-7.1588
 20
-11.63232
 30
0.0
 10
-7.1588
 20
-11.63232
 30
0.0
 10
-7.03977
 20
-11.63232
 30
0.0
 10
-7.03977
 20
-11.63232
 30
0.0
 10
-7.03977
 20
-11.63232
 30
0.0
 10
-7.03977
 20
-11.63232
 30
0.0
 10
-7.03977
 20
-11.16926
 30
0.0
 10
-7.03977
 20
-11.16926
 30
0.0
 10
-7.03977
 20
-11.16926
 30
0.0
 10
-7.04572
 20
-11.11874
 30
0.0
 10
-7.14095
 20
-11.11032
 30
0.0
 10
-7.1469
 20
-11.00087
 30
0.0
 10
-7.1469
 20
-11.00087
 30
0.0
 10
-7.15285
 20
-10.90826
 30
0.0
 10
-7.09929
 20
-10.8409
 30
0.0
 10
-7.03382
 20
-10.82406
 30
0.0
 10
-7.03382
 20
-10.82406
 30
0.0
 10
-7.03382
 20
-10.82406
 30
0.0
 10
-7.03977
 20
-7.66679
 30
0.0
 10
-7.03977
 20
-7.66679
 30
0.0
 10
-7.03977
 20
-7.66679
 30
0.0
 10
-7.15285
 20
-7.62469
 30
0.0
 10
-7.17666
 20
-7.48998
 30
0.0
 10
-7.11119
 20
-7.39737
 30
0.0
 10
-7.11119
 20
-7.39737
 30
0.0
 10
-7.08143
 20
-7.34685
 30
0.0
 10
-7.06953
 20
-7.36369
 30
0.0
 10
-7.03977
 20
-7.33843
 30
0.0
 10
-7.03977
 20
-7.33843
 30
0.0
 10
-7.03977
 20
-7.33843
 30
0.0
 10
-7.03977
 20
-6.85852
 30
0.0
 10
-7.03977
 20
-6.85852
 30
0.0
 10
-7.03977
 20
-6.85852
 30
0.0
 10
-7.03977
 20
-6.85852
 30
0.0
 10
-7.15285
 20
-6.85852
 30
0.0
 10
-7.15285
 20
-6.85852
 30
0.0
 10
-7.15285
 20
-6.85852
 30
0.0
 10
-7.15285
 20
-6.85852
 30
0.0
 10
-7.1588
 20
-11.63232
 30
0.0
 10
-7.1588
 20
-11.63232
 30
0.0
  0
SPLINE
  5
11F
330
1F
100
AcDbEntity
  8
Warstwa 1
370
    50
100
AcDbSpline
210
0.0
220
0.0
230
1.0
 70
    11
 71
     3
 72
    20
 73
    16
 74
     0
 42
0.0000000001
 43
0.0000000001
 40
0.0
 40
0.0
 40
0.0
 40
0.0
 40
0.2
 40
0.2
 40
0.2
 40
0.2
 40
0.4
 40
0.4
 40
0.4
 40
0.4
 40
0.6
 40
0.6
 40
0.6
 40
0.6
 40
1.0
 40
1.0
 40
1.0
 40
1.0
 10
-6.24821
 20
-8.98863
 30
0.0
 10
-6.40891
 20
-9.03073
 30
0.0
 10
-6.47437
 20
-9.18228
 30
0.0
 10
-6.43271
 20
-9.31699
 30
0.0
 10
-6.43271
 20
-9.31699
 30
0.0
 10
-6.39105
 20
-9.44328
 30
0.0
 10
-6.27202
 20
-9.54431
 30
0.0
 10
-6.09942
 20
-9.50222
 30
0.0
 10
-6.09942
 20
-9.50222
 30
0.0
 10
-5.98039
 20
-9.46854
 30
0.0
 10
-5.86731
 20
-9.33383
 30
0.0
 10
-5.91492
 20
-9.16544
 30
0.0
 10
-5.91492
 20
-9.16544
 30
0.0
 10
-5.95063
 20
-9.03915
 30
0.0
 10
-6.08157
 20
-8.93812
 30
0.0
 10
-6.24821
 20
-8.98863
 30
0.0
  0
ELLIPSE
  5
120
330
1F
100
AcDbEntity
  8
Warstwa 1
370
    50
100
AcDbEllipse
 10
-0.97084
 20
-9.24258
 30
0.0
 11
0.0
 21
0.2615
 31
0.0
210
0.0
220
0.0
230
1.0
 40
1.0
 41
0.0
 42
6.283185307179586
  0
SPLINE
  5
121
330
1F
100
AcDbEntity
  8
Warstwa 1
100
AcDbSpline
210
0.0
220
0.0
230
1.0
 70
    11
 71
     3
 72
    28
 73
    24
 74
     0
 42
0.0000000001
 43
0.0000000001
 40
0.0
 40
0.0
 40
0.0
 40
0.0
 40
0.1428571428571428
 40
0.1428571428571428
 40
0.1428571428571428
 40
0.1428571428571428
 40
0.2857142857142857
 40
0.2857142857142857
 40
0.2857142857142857
 40
0.2857142857142857
 40
0.4285714285714285
 40
0.4285714285714285
 40
0.4285714285714285
 40
0.4285714285714285
 40
0.5714285714285714
 40
0.5714285714285714
 40
0.5714285714285714
 40
0.5714285714285714
 40
0.7142857142857143
 40
0.7142857142857143
 40
0.7142857142857143
 40
0.7142857142857143
 40
1.0
 40
1.0
 40
1.0
 40
1.0
 10
-7.20615
 20
-8.50073
 30
0.0
 10
-7.38284
 20
-8.32934
 30
0.0
 10
-7.49269
 20
-8.08944
 30
0.0
 10
-7.49269
 20
-7.82384
 30
0.0
 10
-7.49269
 20
-7.82384
 30
0.0
 10
-7.49269
 20
-7.55824
 30
0.0
 10
-7.38284
 20
-7.31834
 30
0.0
 10
-7.20615
 20
-7.14695
 30
0.0
 10
-7.20615
 20
-7.14695
 30
0.0
 10
-7.20615
 20
-7.14695
 30
0.0
 10
-7.20615
 20
-7.21782
 30
0.0
 10
-7.20615
 20
-7.21782
 30
0.0
 10
-7.20615
 20
-7.21782
 30
0.0
 10
-7.35325
 20
-7.37708
 30
0.0
 10
-7.44317
 20
-7.58995
 30
0.0
 10
-7.44317
 20
-7.82384
 30
0.0
 10
-7.44317
 20
-7.82384
 30
0.0
 10
-7.44317
 20
-8.05773
 30
0.0
 10
-7.35325
 20
-8.2706
 30
0.0
 10
-7.20615
 20
-8.42986
 30
0.0
 10
-7.20615
 20
-8.42986
 30
0.0
 10
-7.20615
 20
-8.42986
 30
0.0
 10
-7.20615
 20
-8.50073
 30
0.0
 10
-7.20615
 20
-8.50073
 30
0.0
  0
SPLINE
  5
122
330
1F
100
AcDbEntity
  8
Warstwa 1
100
AcDbSpline
210
0.0
220
0.0
230
1.0
 70
    11
 71
     3
 72
    28
 73
    24
 74
     0
 42
0.0000000001
 43
0.0000000001
 40
0.0
 40
0.0
 40
0.0
 40
0.0
 40
0.1428571428571428
 40
0.1428571428571428
 40
0.1428571428571428
 40
0.1428571428571428
 40
0.2857142857142857
 40
0.2857142857142857
 40
0.2857142857142857
 40
0.2857142857142857
 40
0.4285714285714285
 40
0.4285714285714285
 40
0.4285714285714285
 40
0.4285714285714285
 40
0.5714285714285714
 40
0.5714285714285714
 40
0.5714285714285714
 40
0.5714285714285714
 40
0.7142857142857143
 40
0.7142857142857143
 40
0.7142857142857143
 40
0.7142857142857143
 40
1.0
 40
1.0
 40
1.0
 40
1.0
 10
-7.20615
 20
-11.33073
 30
0.0
 10
-7.38284
 20
-11.15934
 30
0.0
 10
-7.49269
 20
-10.91944
 30
0.0
 10
-7.49269
 20
-10.65384
 30
0.0
 10
-7.49269
 20
-10.65384
 30
0.0
 10
-7.49269
 20
-10.38824
 30
0.0
 10
-7.38284
 20
-10.14834
 30
0.0
 10
-7.20615
 20
-9.97695
 30
0.0
 10
-7.20615
 20
-9.97695
 30
0.0
 10
-7.20615
 20
-9.97695
 30
0.0
 10
-7.20615
 20
-10.04782
 30
0.0
 10
-7.20615
 20
-10.04782
 30
0.0
 10
-7.20615
 20
-10.04782
 30
0.0
 10
-7.35325
 20
-10.20708
 30
0.0
 10
-7.44317
 20
-10.41995
 30
0.0
 10
-7.44317
 20
-10.65384
 30
0.0
 10
-7.44317
 20
-10.65384
 30
0.0
 10
-7.44317
 20
-10.88773
 30
0.0
 10
-7.35325
 20
-11.1006
 30
0.0
 10
-7.20615
 20
-11.25986
 30
0.0
 10
-7.20615
 20
-11.25986
 30
0.0
 10
-7.20615
 20
-11.25986
 30
0.0
 10
-7.20615
 20
-11.33073
 30
0.0
 10
-7.20615
 20
-11.33073
 30
0.0
  0
LWPOLYLINE
  5
123
330
1F
100
AcDbEntity
  8
Warstwa 1
 62
     7
100
AcDbPolyline
 90
        5
 70
     1
 43
0.0
 10
0.06128
 20
-8.75927
 10
0.16186
 20
-8.75927
 10
0.16186
 20
-6.90673
 10
0.06128
 20
-6.90673
 10
0.06128
 20
-8.75927
  0
LWPOLYLINE
  5
124
330
1F
100
AcDbEntity
  8
Warstwa 1
 62
     7
100
AcDbPolyline
 90
        5
 70
     1
 43
0.0
 10
0.18127
 20
-8.75927
 10
0.34317
 20
-8.75927
 10
0.34317
 20
-6.90673
 10
0.18127
 20
-6.90673
 10
0.18127
 20
-8.75927
  0
LWPOLYLINE
  5
125
330
1F
100
AcDbEntity
  8
Warstwa 1
 62
     7
100
AcDbPolyline
 90
        5
 70
     1
 43
0.0
 10
0.06128
 20
-11.56927
 10
0.16186
 20
-11.56927
 10
0.16186
 20
-9.71673
 10
0.06128
 20
-9.71673
 10
0.06128
 20
-11.56927
  0
LWPOLYLINE
  5
126
330
1F
100
AcDbEntity
  8
Warstwa 1
 62
     7
100
AcDbPolyline
 90
        5
 70
     1
 43
0.0
 10
0.18127
 20
-11.56927
 10
0.34317
 20
-11.56927
 10
0.34317
 20
-9.71673
 10
0.18127
 20
-9.71673
 10
0.18127
 20
-11.56927
  0
SPLINE
  5
127
330
1F
100
AcDbEntity
  8
Warstwa 1
 62
     7
100
AcDbSpline
210
0.0
220
0.0
230
1.0
 70
    11
 71
     3
 72
    20
 73
    16
 74
     0
 42
0.0000000001
 43
0.0000000001
 40
0.0
 40
0.0
 40
0.0
 40
0.0
 40
0.2
 40
0.2
 40
0.2
 40
0.2
 40
0.4
 40
0.4
 40
0.4
 40
0.4
 40
0.6
 40
0.6
 40
0.6
 40
0.6
 40
1.0
 40
1.0
 40
1.0
 40
1.0
 10
3.804
 20
3.7115
 30
0.0
 10
3.804
 20
3.7115
 30
0.0
 10
5.68037
 20
3.7115
 30
0.0
 10
5.68037
 20
3.7115
 30
0.0
 10
5.68037
 20
3.7115
 30
0.0
 10
5.68037
 20
3.7115
 30
0.0
 10
5.71037
 20
3.6004
 30
0.0
 10
5.71037
 20
3.6004
 30
0.0
 10
5.71037
 20
3.6004
 30
0.0
 10
5.71037
 20
3.6004
 30
0.0
 10
3.764
 20
3.6004
 30
0.0
 10
3.764
 20
3.6004
 30
0.0
 10
3.764
 20
3.6004
 30
0.0
 10
3.764
 20
3.6004
 30
0.0
 10
3.804
 20
3.7115
 30
0.0
 10
3.804
 20
3.7115
 30
0.0
  0
SPLINE
  5
128
330
1F
100
AcDbEntity
  8
Warstwa 1
 62
     7
100
AcDbSpline
210
0.0
220
0.0
230
1.0
 70
    11
 71
     3
 72
    20
 73
    16
 74
     0
 42
0.0000000001
 43
0.0000000001
 40
0.0
 40
0.0
 40
0.0
 40
0.0
 40
0.2
 40
0.2
 40
0.2
 40
0.2
 40
0.4
 40
0.4
 40
0.4
 40
0.4
 40
0.6
 40
0.6
 40
0.6
 40
0.6
 40
1.0
 40
1.0
 40
1.0
 40
1.0
 10
6.614
 20
3.7115
 30
0.0
 10
6.614
 20
3.7115
 30
0.0
 10
8.49037
 20
3.7115
 30
0.0
 10
8.49037
 20
3.7115
 30
0.0
 10
8.49037
 20
3.7115
 30
0.0
 10
8.49037
 20
3.7115
 30
0.0
 10
8.52037
 20
3.6004
 30
0.0
 10
8.52037
 20
3.6004
 30
0.0
 10
8.52037
 20
3.6004
 30
0.0
 10
8.52037
 20
3.6004
 30
0.0
 10
6.574
 20
3.6004
 30
0.0
 10
6.574
 20
3.6004
 30
0.0
 10
6.574
 20
3.6004
 30
0.0
 10
6.574
 20
3.6004
 30
0.0
 10
6.614
 20
3.7115
 30
0.0
 10
6.614
 20
3.7115
 30
0.0
  0
ENDSEC
  0
SECTION
  2
OBJECTS
  0
DICTIONARY
  5
C
330
0
100
AcDbDictionary
281
     1
  3
ACAD_GROUP
350
D
  3
ACAD_LAYOUT
350
1A
  3
ACAD_MATERIAL
350
3B
  3
ACAD_MLEADERSTYLE
350
14C
  3
ACAD_MLINESTYLE
350
17
  3
ACAD_PLOTSETTINGS
350
19
  3
ACAD_PLOTSTYLENAME
350
E
  3
ACAD_SCALELIST
350
43
  3
ACAD_TABLESTYLE
350
14B
  3
ACAD_VISUALSTYLE
350
2A
  3
AcDbVariableDictionary
350
129
  0
DICTIONARY
  5
D
102
{ACAD_REACTORS
330
C
102
}
330
C
100
AcDbDictionary
281
     1
  0
DICTIONARY
  5
1A
102
{ACAD_REACTORS
330
C
102
}
330
C
100
AcDbDictionary
281
     1
  3
Layout1
350
1E
  3
Layout2
350
26
  3
Model
350
22
  0
DICTIONARY
  5
3B
102
{ACAD_REACTORS
330
C
102
}
330
C
100
AcDbDictionary
281
     1
  3
ByBlock
350
3D
  3
ByLayer
350
3C
  3
Global
350
3E
  0
DICTIONARY
  5
14C
102
{ACAD_REACTORS
330
C
102
}
330
C
100
AcDbDictionary
281
     1
  0
DICTIONARY
  5
17
102
{ACAD_REACTORS
330
C
102
}
330
C
100
AcDbDictionary
281
     1
  3
Standard
350
18
  0
DICTIONARY
  5
19
102
{ACAD_REACTORS
330
C
102
}
330
C
100
AcDbDictionary
281
     1
  0
ACDBDICTIONARYWDFLT
  5
E
102
{ACAD_REACTORS
330
C
102
}
330
C
100
AcDbDictionary
281
     1
  3
Normal
350
F
100
AcDbDictionaryWithDefault
340
F
  0
DICTIONARY
  5
43
102
{ACAD_REACTORS
330
C
102
}
330
C
100
AcDbDictionary
281
     1
  3
A0
350
44
  3
A1
350
45
  3
A2
350
46
  3
A3
350
47
  3
A4
350
48
  3
A5
350
49
  3
A6
350
4A
  3
A7
350
4B
  3
A8
350
4C
  3
A9
350
4D
  3
B0
350
4E
  3
B1
350
4F
  3
B2
350
50
  3
B3
350
51
  3
B4
350
52
  3
B5
350
53
  3
B6
350
54
  3
B7
350
55
  3
B8
350
56
  3
B9
350
57
  3
C0
350
58
  3
C1
350
59
  3
C2
350
5A
  3
C3
350
5B
  3
C4
350
5C
  3
C5
350
5D
  3
C6
350
5E
  3
C7
350
5F
  3
C8
350
60
  3
C9
350
61
  3
D0
350
62
  3
D1
350
63
  3
D2
350
64
  0
DICTIONARY
  5
14B
102
{ACAD_REACTORS
330
C
102
}
330
C
100
AcDbDictionary
281
     1
  0
DICTIONARY
  5
2A
102
{ACAD_REACTORS
330
C
102
}
330
C
100
AcDbDictionary
281
     1
  3
2dWireframe
350
2F
  3
3D Hidden
350
31
  3
3dWireframe
350
30
  3
Basic
350
32
  3
Brighten
350
36
  3
ColorChange
350
3A
  3
Conceptual
350
34
  3
Dim
350
35
  3
Facepattern
350
39
  3
Flat
350
2B
  3
FlatWithEdges
350
2C
  3
Gouraud
350
2D
  3
GouraudWithEdges
350
2E
  3
Linepattern
350
38
  3
Realistic
350
33
  3
Thicken
350
37
  0
DICTIONARY
  5
129
102
{ACAD_REACTORS
330
C
102
}
330
C
100
AcDbDictionary
281
     1
  3
CANNOSCALE
350
12A
  0
LAYOUT
  5
1E
102
{ACAD_REACTORS
330
1A
102
}
330
1A
100
AcDbPlotSettings
  1

  2
none_device
  4

  6

 40
0.0
 41
0.0
 42
0.0
 43
0.0
 44
0.0
 45
0.0
 46
0.0
 47
0.0
 48
0.0
 49
0.0
140
0.0
141
0.0
142
1.0
143
1.0
 70
   688
 72
     0
 73
     0
 74
     5
  7

 75
    16
 76
     0
 77
     2
 78
   300
147
1.0
148
0.0
149
0.0
100
AcDbLayout
  1
Layout1
 70
     1
 71
     1
 10
0.0
 20
0.0
 11
12.0
 21
9.0
 12
0.0
 22
0.0
 32
0.0
 14
1.000000000000000E+20
 24
1.000000000000000E+20
 34
1.000000000000000E+20
 15
-1.000000000000000E+20
 25
-1.000000000000000E+20
 35
-1.000000000000000E+20
146
0.0
 13
0.0
 23
0.0
 33
0.0
 16
1.0
 26
0.0
 36
0.0
 17
0.0
 27
1.0
 37
0.0
 76
     0
330
1B
  0
LAYOUT
  5
26
102
{ACAD_REACTORS
330
1A
102
}
330
1A
100
AcDbPlotSettings
  1

  2
none_device
  4

  6

 40
0.0
 41
0.0
 42
0.0
 43
0.0
 44
0.0
 45
0.0
 46
0.0
 47
0.0
 48
0.0
 49
0.0
140
0.0
141
0.0
142
1.0
143
1.0
 70
   688
 72
     0
 73
     0
 74
     5
  7

 75
    16
 76
     0
 77
     2
 78
   300
147
1.0
148
0.0
149
0.0
100
AcDbLayout
  1
Layout2
 70
     1
 71
     2
 10
0.0
 20
0.0
 11
0.0
 21
0.0
 12
0.0
 22
0.0
 32
0.0
 14
0.0
 24
0.0
 34
0.0
 15
0.0
 25
0.0
 35
0.0
146
0.0
 13
0.0
 23
0.0
 33
0.0
 16
1.0
 26
0.0
 36
0.0
 17
0.0
 27
1.0
 37
0.0
 76
     0
330
23
  0
LAYOUT
  5
22
102
{ACAD_REACTORS
330
1A
102
}
330
1A
100
AcDbPlotSettings
  1

  2
none_device
  4

  6

 40
0.0
 41
0.0
 42
0.0
 43
0.0
 44
0.0
 45
0.0
 46
0.0
 47
0.0
 48
0.0
 49
0.0
140
0.0
141
0.0
142
1.0
143
1.0
 70
  1712
 72
     0
 73
     0
 74
     0
  7

 75
     0
 76
     0
 77
     2
 78
   300
147
1.0
148
0.0
149
0.0
100
AcDbLayout
  1
Model
 70
     1
 71
     0
 10
0.0
 20
0.0
 11
12.0
 21
9.0
 12
0.0
 22
0.0
 32
0.0
 14
-8.82122
 24
-12.72172
 34
0.0
 15
9.90437
 25
12.189
 35
0.0
146
0.0
 13
0.0
 23
0.0
 33
0.0
 16
1.0
 26
0.0
 36
0.0
 17
0.0
 27
1.0
 37
0.0
 76
     0
330
1F
331
29
  0
MATERIAL
  5
3D
102
{ACAD_REACTORS
330
3B
102
}
330
3B
100
AcDbMaterial
  1
ByBlock
 72
     1
 94
      127
  0
MATERIAL
  5
3C
102
{ACAD_REACTORS
330
3B
102
}
330
3B
100
AcDbMaterial
  1
ByLayer
 72
     1
 94
      127
  0
MATERIAL
  5
3E
102
{ACAD_REACTORS
330
3B
102
}
330
3B
100
AcDbMaterial
  1
Global
 72
     1
 94
      127
  0
MLINESTYLE
  5
18
102
{ACAD_REACTORS
330
17
102
}
330
17
100
AcDbMlineStyle
  2
Standard
 70
     0
  3

 62
   256
 51
90.0
 52
90.0
 71
     2
 49
0.5
 62
   256
  6
BYLAYER
 49
-0.5
 62
   256
  6
BYLAYER
  0
ACDBPLACEHOLDER
  5
F
102
{ACAD_REACTORS
330
E
102
}
330
E
  0
SCALE
  5
44
102
{ACAD_REACTORS
330
43
102
}
330
43
100
AcDbScale
 70
     0
300
1:1
140
1.0
141
1.0
290
     1
  0
SCALE
  5
45
102
{ACAD_REACTORS
330
43
102
}
330
43
100
AcDbScale
 70
     0
300
1:2
140
1.0
141
2.0
290
     0
  0
SCALE
  5
46
102
{ACAD_REACTORS
330
43
102
}
330
43
100
AcDbScale
 70
     0
300
1:4
140
1.0
141
4.0
290
     0
  0
SCALE
  5
47
102
{ACAD_REACTORS
330
43
102
}
330
43
100
AcDbScale
 70
     0
300
1:5
140
1.0
141
5.0
290
     0
  0
SCALE
  5
48
102
{ACAD_REACTORS
330
43
102
}
330
43
100
AcDbScale
 70
     0
300
1:8
140
1.0
141
8.0
290
     0
  0
SCALE
  5
49
102
{ACAD_REACTORS
330
43
102
}
330
43
100
AcDbScale
 70
     0
300
1:10
140
1.0
141
10.0
290
     0
  0
SCALE
  5
4A
102
{ACAD_REACTORS
330
43
102
}
330
43
100
AcDbScale
 70
     0
300
1:16
140
1.0
141
16.0
290
     0
  0
SCALE
  5
4B
102
{ACAD_REACTORS
330
43
102
}
330
43
100
AcDbScale
 70
     0
300
1:20
140
1.0
141
20.0
290
     0
  0
SCALE
  5
4C
102
{ACAD_REACTORS
330
43
102
}
330
43
100
AcDbScale
 70
     0
300
1:30
140
1.0
141
30.0
290
     0
  0
SCALE
  5
4D
102
{ACAD_REACTORS
330
43
102
}
330
43
100
AcDbScale
 70
     0
300
1:40
140
1.0
141
40.0
290
     0
  0
SCALE
  5
4E
102
{ACAD_REACTORS
330
43
102
}
330
43
100
AcDbScale
 70
     0
300
1:50
140
1.0
141
50.0
290
     0
  0
SCALE
  5
4F
102
{ACAD_REACTORS
330
43
102
}
330
43
100
AcDbScale
 70
     0
300
1:100
140
1.0
141
100.0
290
     0
  0
SCALE
  5
50
102
{ACAD_REACTORS
330
43
102
}
330
43
100
AcDbScale
 70
     0
300
2:1
140
2.0
141
1.0
290
     0
  0
SCALE
  5
51
102
{ACAD_REACTORS
330
43
102
}
330
43
100
AcDbScale
 70
     0
300
4:1
140
4.0
141
1.0
290
     0
  0
SCALE
  5
52
102
{ACAD_REACTORS
330
43
102
}
330
43
100
AcDbScale
 70
     0
300
8:1
140
8.0
141
1.0
290
     0
  0
SCALE
  5
53
102
{ACAD_REACTORS
330
43
102
}
330
43
100
AcDbScale
 70
     0
300
10:1
140
10.0
141
1.0
290
     0
  0
SCALE
  5
54
102
{ACAD_REACTORS
330
43
102
}
330
43
100
AcDbScale
 70
     0
300
100:1
140
100.0
141
1.0
290
     0
  0
SCALE
  5
55
102
{ACAD_REACTORS
330
43
102
}
330
43
100
AcDbScale
 70
     0
300
1/128" = 1'-0"
140
0.0078125
141
12.0
290
     0
  0
SCALE
  5
56
102
{ACAD_REACTORS
330
43
102
}
330
43
100
AcDbScale
 70
     0
300
1/64" = 1'-0"
140
0.015625
141
12.0
290
     0
  0
SCALE
  5
57
102
{ACAD_REACTORS
330
43
102
}
330
43
100
AcDbScale
 70
     0
300
1/32" = 1'-0"
140
0.03125
141
12.0
290
     0
  0
SCALE
  5
58
102
{ACAD_REACTORS
330
43
102
}
330
43
100
AcDbScale
 70
     0
300
1/16" = 1'-0"
140
0.0625
141
12.0
290
     0
  0
SCALE
  5
59
102
{ACAD_REACTORS
330
43
102
}
330
43
100
AcDbScale
 70
     0
300
3/32" = 1'-0"
140
0.09375
141
12.0
290
     0
  0
SCALE
  5
5A
102
{ACAD_REACTORS
330
43
102
}
330
43
100
AcDbScale
 70
     0
300
1/8" = 1'-0"
140
0.125
141
12.0
290
     0
  0
SCALE
  5
5B
102
{ACAD_REACTORS
330
43
102
}
330
43
100
AcDbScale
 70
     0
300
3/16" = 1'-0"
140
0.1875
141
12.0
290
     0
  0
SCALE
  5
5C
102
{ACAD_REACTORS
330
43
102
}
330
43
100
AcDbScale
 70
     0
300
1/4" = 1'-0"
140
0.25
141
12.0
290
     0
  0
SCALE
  5
5D
102
{ACAD_REACTORS
330
43
102
}
330
43
100
AcDbScale
 70
     0
300
3/8" = 1'-0"
140
0.375
141
12.0
290
     0
  0
SCALE
  5
5E
102
{ACAD_REACTORS
330
43
102
}
330
43
100
AcDbScale
 70
     0
300
1/2" = 1'-0"
140
0.5
141
12.0
290
     0
  0
SCALE
  5
5F
102
{ACAD_REACTORS
330
43
102
}
330
43
100
AcDbScale
 70
     0
300
3/4" = 1'-0"
140
0.75
141
12.0
290
     0
  0
SCALE
  5
60
102
{ACAD_REACTORS
330
43
102
}
330
43
100
AcDbScale
 70
     0
300
1" = 1'-0"
140
1.0
141
12.0
290
     0
  0
SCALE
  5
61
102
{ACAD_REACTORS
330
43
102
}
330
43
100
AcDbScale
 70
     0
300
1-1/2" = 1'-0"
140
1.5
141
12.0
290
     0
  0
SCALE
  5
62
102
{ACAD_REACTORS
330
43
102
}
330
43
100
AcDbScale
 70
     0
300
3" = 1'-0"
140
3.0
141
12.0
290
     0
  0
SCALE
  5
63
102
{ACAD_REACTORS
330
43
102
}
330
43
100
AcDbScale
 70
     0
300
6" = 1'-0"
140
6.0
141
12.0
290
     0
  0
SCALE
  5
64
102
{ACAD_REACTORS
330
43
102
}
330
43
100
AcDbScale
 70
     0
300
1'-0" = 1'-0"
140
12.0
141
12.0
290
     0
  0
VISUALSTYLE
  5
2F
102
{ACAD_REACTORS
330
2A
102
}
102
{ACAD_XDICTIONARY
360
133
102
}
330
2A
100
AcDbVisualStyle
  2
2dWireframe
 70
     4
 71
     0
 72
     2
 73
     0
 90
        0
 40
-0.6
 41
-30.0
 62
     5
 63
     7
421
 16777215
 74
     1
 91
        4
 64
     7
 65
   257
 75
     1
175
     1
 42
1.0
 92
        0
 66
   257
 43
1.0
 76
     1
 77
     6
 78
     2
 67
     7
 79
     5
170
     0
171
     0
290
     0
174
     0
 93
        1
 44
0.0
173
     0
291
     0
 45
0.0
  0
VISUALSTYLE
  5
31
102
{ACAD_REACTORS
330
2A
102
}
102
{ACAD_XDICTIONARY
360
137
102
}
330
2A
100
AcDbVisualStyle
  2
3D Hidden
 70
     6
 71
     1
 72
     2
 73
     2
 90
        0
 40
-0.6
 41
-30.0
 62
     5
 63
     7
421
 16777215
 74
     2
 91
        2
 64
     7
 65
   257
 75
     2
175
     1
 42
40.0
 92
        0
 66
   257
 43
1.0
 76
     1
 77
     6
 78
     2
 67
     7
 79
     3
170
     0
171
     0
290
     0
174
     0
 93
        1
 44
0.0
173
     0
291
     0
 45
0.0
  0
VISUALSTYLE
  5
30
102
{ACAD_REACTORS
330
2A
102
}
102
{ACAD_XDICTIONARY
360
135
102
}
330
2A
100
AcDbVisualStyle
  2
3dWireframe
 70
     5
 71
     0
 72
     2
 73
     0
 90
        0
 40
-0.6
 41
-30.0
 62
     5
 63
     7
421
 16777215
 74
     1
 91
        4
 64
     7
 65
   257
 75
     1
175
     1
 42
1.0
 92
        0
 66
   257
 43
1.0
 76
     1
 77
     6
 78
     2
 67
     7
 79
     5
170
     0
171
     0
290
     0
174
     0
 93
        1
 44
0.0
173
     0
291
     0
 45
0.0
  0
VISUALSTYLE
  5
32
102
{ACAD_REACTORS
330
2A
102
}
102
{ACAD_XDICTIONARY
360
139
102
}
330
2A
100
AcDbVisualStyle
  2
Basic
 70
     7
 71
     1
 72
     0
 73
     1
 90
        0
 40
-0.6
 41
-30.0
 62
     5
 63
     7
421
 16777215
 74
     0
 91
        4
 64
     7
 65
   257
 75
     1
175
     1
 42
1.0
 92
        8
 66
     7
 43
1.0
 76
     1
 77
     6
 78
     2
 67
     7
 79
     5
170
     0
171
     0
290
     0
174
     0
 93
        1
 44
0.0
173
     0
291
     1
 45
0.0
  0
VISUALSTYLE
  5
36
102
{ACAD_REACTORS
330
2A
102
}
102
{ACAD_XDICTIONARY
360
141
102
}
330
2A
100
AcDbVisualStyle
  2
Brighten
 70
    12
 71
     2
 72
     2
 73
     0
 90
        0
 40
-0.6
 41
-30.0
 62
     5
 63
     7
421
 16777215
 74
     1
 91
        4
 64
     7
 65
   257
 75
     1
175
     1
 42
1.0
 92
        8
 66
     7
 43
1.0
 76
     1
 77
     6
 78
     2
 67
     7
 79
     5
170
     0
171
     0
290
     0
174
     0
 93
        1
 44
50.0
173
     0
291
     1
 45
0.0
  0
VISUALSTYLE
  5
3A
102
{ACAD_REACTORS
330
2A
102
}
102
{ACAD_XDICTIONARY
360
149
102
}
330
2A
100
AcDbVisualStyle
  2
ColorChange
 70
    16
 71
     2
 72
     2
 73
     3
 90
        0
 40
-0.6
 41
-30.0
 62
     5
 63
     8
421
  8421504
 74
     1
 91
        4
 64
     7
 65
   257
 75
     1
175
     1
 42
1.0
 92
        8
 66
     8
424
  8421504
 43
1.0
 76
     1
 77
     6
 78
     2
 67
     7
 79
     5
170
     0
171
     0
290
     0
174
     0
 93
        1
 44
0.0
173
     0
291
     1
 45
0.0
  0
VISUALSTYLE
  5
34
102
{ACAD_REACTORS
330
2A
102
}
102
{ACAD_XDICTIONARY
360
13D
102
}
330
2A
100
AcDbVisualStyle
  2
Conceptual
 70
     9
 71
     3
 72
     2
 73
     0
 90
        0
 40
-0.6
 41
-30.0
 62
     5
 63
     7
421
 16777215
 74
     2
 91
        2
 64
     7
 65
   257
 75
     1
175
     1
 42
40.0
 92
        8
 66
     7
 43
1.0
 76
     1
 77
     6
 78
     2
 67
     7
 79
     3
170
     0
171
     0
290
     0
174
     0
 93
        1
 44
0.0
173
     0
291
     0
 45
0.0
  0
VISUALSTYLE
  5
35
102
{ACAD_REACTORS
330
2A
102
}
102
{ACAD_XDICTIONARY
360
13F
102
}
330
2A
100
AcDbVisualStyle
  2
Dim
 70
    11
 71
     2
 72
     2
 73
     0
 90
        0
 40
-0.6
 41
-30.0
 62
     5
 63
     7
421
 16777215
 74
     1
 91
        4
 64
     7
 65
   257
 75
     1
175
     1
 42
1.0
 92
        8
 66
     7
 43
1.0
 76
     1
 77
     6
 78
     2
 67
     7
 79
     5
170
     0
171
     0
290
     0
174
     0
 93
        1
 44
-50.0
173
     0
291
     1
 45
0.0
  0
VISUALSTYLE
  5
39
102
{ACAD_REACTORS
330
2A
102
}
102
{ACAD_XDICTIONARY
360
147
102
}
330
2A
100
AcDbVisualStyle
  2
Facepattern
 70
    15
 71
     2
 72
     2
 73
     0
 90
        0
 40
-0.6
 41
-30.0
 62
     5
 63
     7
421
 16777215
 74
     1
 91
        4
 64
     7
 65
   257
 75
     1
175
     1
 42
1.0
 92
        8
 66
     7
 43
1.0
 76
     1
 77
     6
 78
     2
 67
     7
 79
     5
170
     0
171
     0
290
     0
174
     0
 93
        1
 44
0.0
173
     0
291
     1
 45
0.0
  0
VISUALSTYLE
  5
2B
102
{ACAD_REACTORS
330
2A
102
}
102
{ACAD_XDICTIONARY
360
12B
102
}
330
2A
100
AcDbVisualStyle
  2
Flat
 70
     0
 71
     2
 72
     1
 73
     1
 90
        2
 40
-0.6
 41
30.0
 62
     5
 63
     7
421
 16777215
 74
     0
 91
        4
 64
     7
 65
   257
 75
     1
175
     1
 42
1.0
 92
        8
 66
     7
 43
1.0
 76
     1
 77
     6
 78
     2
 67
     7
 79
     5
170
     0
171
     0
290
     0
174
     0
 93
       13
 44
0.0
173
     0
291
     1
 45
0.0
  0
VISUALSTYLE
  5
2C
102
{ACAD_REACTORS
330
2A
102
}
102
{ACAD_XDICTIONARY
360
12D
102
}
330
2A
100
AcDbVisualStyle
  2
FlatWithEdges
 70
     1
 71
     2
 72
     1
 73
     1
 90
        2
 40
-0.6
 41
30.0
 62
     5
 63
     7
421
 16777215
 74
     1
 91
        4
 64
     7
 65
   257
 75
     1
175
     1
 42
1.0
 92
        0
 66
   257
 43
1.0
 76
     1
 77
     6
 78
     2
 67
     7
 79
     5
170
     0
171
     0
290
     0
174
     0
 93
       13
 44
0.0
173
     0
291
     1
 45
0.0
  0
VISUALSTYLE
  5
2D
102
{ACAD_REACTORS
330
2A
102
}
102
{ACAD_XDICTIONARY
360
12F
102
}
330
2A
100
AcDbVisualStyle
  2
Gouraud
 70
     2
 71
     2
 72
     2
 73
     1
 90
        2
 40
-0.6
 41
30.0
 62
     5
 63
     7
421
 16777215
 74
     0
 91
        4
 64
     7
 65
   257
 75
     1
175
     1
 42
1.0
 92
        0
 66
     7
 43
1.0
 76
     1
 77
     6
 78
     2
 67
     7
 79
     5
170
     0
171
     0
290
     0
174
     0
 93
       13
 44
0.0
173
     0
291
     1
 45
0.0
  0
VISUALSTYLE
  5
2E
102
{ACAD_REACTORS
330
2A
102
}
102
{ACAD_XDICTIONARY
360
131
102
}
330
2A
100
AcDbVisualStyle
  2
GouraudWithEdges
 70
     3
 71
     2
 72
     2
 73
     1
 90
        2
 40
-0.6
 41
30.0
 62
     5
 63
     7
421
 16777215
 74
     1
 91
        4
 64
     7
 65
   257
 75
     1
175
     1
 42
1.0
 92
        0
 66
   257
 43
1.0
 76
     1
 77
     6
 78
     2
 67
     7
 79
     5
170
     0
171
     0
290
     0
174
     0
 93
       13
 44
0.0
173
     0
291
     1
 45
0.0
  0
VISUALSTYLE
  5
38
102
{ACAD_REACTORS
330
2A
102
}
102
{ACAD_XDICTIONARY
360
145
102
}
330
2A
100
AcDbVisualStyle
  2
Linepattern
 70
    14
 71
     2
 72
     2
 73
     0
 90
        0
 40
-0.6
 41
-30.0
 62
     5
 63
     7
421
 16777215
 74
     1
 91
        4
 64
     7
 65
   257
 75
     7
175
     7
 42
1.0
 92
        8
 66
     7
 43
1.0
 76
     1
 77
     6
 78
     2
 67
     7
 79
     5
170
     0
171
     0
290
     0
174
     0
 93
        1
 44
0.0
173
     0
291
     1
 45
0.0
  0
VISUALSTYLE
  5
33
102
{ACAD_REACTORS
330
2A
102
}
102
{ACAD_XDICTIONARY
360
13B
102
}
330
2A
100
AcDbVisualStyle
  2
Realistic
 70
     8
 71
     2
 72
     2
 73
     0
 90
        0
 40
-0.6
 41
-30.0
 62
     5
 63
     7
421
 16777215
 74
     1
 91
        0
 64
     7
 65
   257
 75
     1
175
     1
 42
1.0
 92
        8
 66
     8
424
  7895160
 43
1.0
 76
     1
 77
     6
 78
     2
 67
     7
 79
     5
170
     0
171
     0
290
     0
174
     0
 93
       13
 44
0.0
173
     0
291
     0
 45
0.0
  0
VISUALSTYLE
  5
37
102
{ACAD_REACTORS
330
2A
102
}
102
{ACAD_XDICTIONARY
360
143
102
}
330
2A
100
AcDbVisualStyle
  2
Thicken
 70
    13
 71
     2
 72
     2
 73
     0
 90
        0
 40
-0.6
 41
-30.0
 62
     5
 63
     7
421
 16777215
 74
     1
 91
        4
 64
     7
 65
   257
 75
     1
175
     1
 42
1.0
 92
       12
 66
     7
 43
1.0
 76
     1
 77
     6
 78
     2
 67
     7
 79
     5
170
     0
171
     0
290
     0
174
     0
 93
        1
 44
0.0
173
     0
291
     1
 45
0.0
  0
DICTIONARYVAR
  5
12A
102
{ACAD_REACTORS
330
129
102
}
330
129
100
DictionaryVariables
280
     0
  1
1:1
  0
DICTIONARY
  5
133
330
2F
100
AcDbDictionary
280
     1
281
     1
  3
ACAD_XREC_ROUNDTRIP
360
134
  0
DICTIONARY
  5
137
330
31
100
AcDbDictionary
280
     1
281
     1
  3
ACAD_XREC_ROUNDTRIP
360
138
  0
DICTIONARY
  5
135
330
30
100
AcDbDictionary
280
     1
281
     1
  3
ACAD_XREC_ROUNDTRIP
360
136
  0
DICTIONARY
  5
139
330
32
100
AcDbDictionary
280
     1
281
     1
  3
ACAD_XREC_ROUNDTRIP
360
13A
  0
DICTIONARY
  5
141
330
36
100
AcDbDictionary
280
     1
281
     1
  3
ACAD_XREC_ROUNDTRIP
360
142
  0
DICTIONARY
  5
149
330
3A
100
AcDbDictionary
280
     1
281
     1
  3
ACAD_XREC_ROUNDTRIP
360
14A
  0
DICTIONARY
  5
13D
330
34
100
AcDbDictionary
280
     1
281
     1
  3
ACAD_XREC_ROUNDTRIP
360
13E
  0
DICTIONARY
  5
13F
330
35
100
AcDbDictionary
280
     1
281
     1
  3
ACAD_XREC_ROUNDTRIP
360
140
  0
DICTIONARY
  5
147
330
39
100
AcDbDictionary
280
     1
281
     1
  3
ACAD_XREC_ROUNDTRIP
360
148
  0
DICTIONARY
  5
12B
330
2B
100
AcDbDictionary
280
     1
281
     1
  3
ACAD_XREC_ROUNDTRIP
360
12C
  0
DICTIONARY
  5
12D
330
2C
100
AcDbDictionary
280
     1
281
     1
  3
ACAD_XREC_ROUNDTRIP
360
12E
  0
DICTIONARY
  5
12F
330
2D
100
AcDbDictionary
280
     1
281
     1
  3
ACAD_XREC_ROUNDTRIP
360
130
  0
DICTIONARY
  5
131
330
2E
100
AcDbDictionary
280
     1
281
     1
  3
ACAD_XREC_ROUNDTRIP
360
132
  0
DICTIONARY
  5
145
330
38
100
AcDbDictionary
280
     1
281
     1
  3
ACAD_XREC_ROUNDTRIP
360
146
  0
DICTIONARY
  5
13B
330
33
100
AcDbDictionary
280
     1
281
     1
  3
ACAD_XREC_ROUNDTRIP
360
13C
  0
DICTIONARY
  5
143
330
37
100
AcDbDictionary
280
     1
281
     1
  3
ACAD_XREC_ROUNDTRIP
360
144
  0
XRECORD
  5
134
102
{ACAD_REACTORS
330
133
102
}
330
133
100
AcDbXrecord
280
     1
102
RTVSPropertyOp0
 70
     1
102
RTVSPropertyOp1
 70
     1
102
RTVSPropertyOp2
 70
     1
102
RTVSPropertyOp3
 70
     1
102
RTVSPropertyOp4
 70
     1
102
RTVSPropertyOp5
 70
     1
102
RTVSPropertyOp6
 70
     1
102
RTVSPropertyOp7
 70
     1
102
RTVSPropertyOp8
 70
     1
102
RTVSPropertyOp9
 70
     1
102
RTVSPropertyOp10
 70
     1
102
RTVSPropertyOp11
 70
     1
102
RTVSPropertyOp12
 70
     1
102
RTVSPropertyOp13
 70
     1
102
RTVSPropertyOp14
 70
     1
102
RTVSPropertyOp15
 70
     1
102
RTVSPropertyOp16
 70
     1
102
RTVSPropertyOp17
 70
     1
102
RTVSPropertyOp18
 70
     1
102
RTVSPropertyOp19
 70
     1
102
RTVSPropertyOp20
 70
     1
102
RTVSPropertyOp21
 70
     1
102
RTVSPropertyOp22
 70
     1
102
RTVSPropertyOp23
 70
     1
102
RTVSPropertyOp24
 70
     1
102
RTVSPropertyOp25
 70
     1
102
RTVSPropertyOp26
 70
     1
102
RTVSPropertyOp27
 70
     1
  0
XRECORD
  5
138
102
{ACAD_REACTORS
330
137
102
}
330
137
100
AcDbXrecord
280
     1
102
RTVSPropertyOp0
 70
     1
102
RTVSPropertyOp1
 70
     1
102
RTVSPropertyOp2
 70
     1
102
RTVSPropertyOp3
 70
     1
102
RTVSPropertyOp4
 70
     1
102
RTVSPropertyOp5
 70
     1
102
RTVSPropertyOp6
 70
     1
102
RTVSPropertyOp7
 70
     1
102
RTVSPropertyOp8
 70
     1
102
RTVSPropertyOp9
 70
     1
102
RTVSPropertyOp10
 70
     1
102
RTVSPropertyOp11
 70
     1
102
RTVSPropertyOp12
 70
     1
102
RTVSPropertyOp13
 70
     1
102
RTVSPropertyOp14
 70
     1
102
RTVSPropertyOp15
 70
     1
102
RTVSPropertyOp16
 70
     1
102
RTVSPropertyOp17
 70
     1
102
RTVSPropertyOp18
 70
     1
102
RTVSPropertyOp19
 70
     1
102
RTVSPropertyOp20
 70
     1
102
RTVSPropertyOp21
 70
     1
102
RTVSPropertyOp22
 70
     1
102
RTVSPropertyOp23
 70
     1
102
RTVSPropertyOp24
 70
     1
102
RTVSPropertyOp25
 70
     1
102
RTVSPropertyOp26
 70
     1
102
RTVSPropertyOp27
 70
     1
  0
XRECORD
  5
136
102
{ACAD_REACTORS
330
135
102
}
330
135
100
AcDbXrecord
280
     1
102
RTVSPropertyOp0
 70
     1
102
RTVSPropertyOp1
 70
     1
102
RTVSPropertyOp2
 70
     1
102
RTVSPropertyOp3
 70
     1
102
RTVSPropertyOp4
 70
     1
102
RTVSPropertyOp5
 70
     1
102
RTVSPropertyOp6
 70
     1
102
RTVSPropertyOp7
 70
     1
102
RTVSPropertyOp8
 70
     1
102
RTVSPropertyOp9
 70
     1
102
RTVSPropertyOp10
 70
     1
102
RTVSPropertyOp11
 70
     1
102
RTVSPropertyOp12
 70
     1
102
RTVSPropertyOp13
 70
     1
102
RTVSPropertyOp14
 70
     1
102
RTVSPropertyOp15
 70
     1
102
RTVSPropertyOp16
 70
     1
102
RTVSPropertyOp17
 70
     1
102
RTVSPropertyOp18
 70
     1
102
RTVSPropertyOp19
 70
     1
102
RTVSPropertyOp20
 70
     1
102
RTVSPropertyOp21
 70
     1
102
RTVSPropertyOp22
 70
     1
102
RTVSPropertyOp23
 70
     1
102
RTVSPropertyOp24
 70
     1
102
RTVSPropertyOp25
 70
     1
102
RTVSPropertyOp26
 70
     1
102
RTVSPropertyOp27
 70
     1
  0
XRECORD
  5
13A
102
{ACAD_REACTORS
330
139
102
}
330
139
100
AcDbXrecord
280
     1
102
RTVSPropertyOp0
 70
     1
102
RTVSPropertyOp1
 70
     1
102
RTVSPropertyOp2
 70
     1
102
RTVSPropertyOp3
 70
     1
102
RTVSPropertyOp4
 70
     1
102
RTVSPropertyOp5
 70
     1
102
RTVSPropertyOp6
 70
     1
102
RTVSPropertyOp7
 70
     1
102
RTVSPropertyOp8
 70
     1
102
RTVSPropertyOp9
 70
     1
102
RTVSPropertyOp10
 70
     1
102
RTVSPropertyOp11
 70
     1
102
RTVSPropertyOp12
 70
     1
102
RTVSPropertyOp13
 70
     1
102
RTVSPropertyOp14
 70
     1
102
RTVSPropertyOp15
 70
     1
102
RTVSPropertyOp16
 70
     1
102
RTVSPropertyOp17
 70
     1
102
RTVSPropertyOp18
 70
     1
102
RTVSPropertyOp19
 70
     1
102
RTVSPropertyOp20
 70
     1
102
RTVSPropertyOp21
 70
     1
102
RTVSPropertyOp22
 70
     1
102
RTVSPropertyOp23
 70
     1
102
RTVSPropertyOp24
 70
     1
102
RTVSPropertyOp25
 70
     1
102
RTVSPropertyOp26
 70
     1
102
RTVSPropertyOp27
 70
     1
  0
XRECORD
  5
142
102
{ACAD_REACTORS
330
141
102
}
330
141
100
AcDbXrecord
280
     1
102
RTVSPropertyOp0
 70
     1
102
RTVSPropertyOp1
 70
     1
102
RTVSPropertyOp2
 70
     1
102
RTVSPropertyOp3
 70
     1
102
RTVSPropertyOp4
 70
     1
102
RTVSPropertyOp5
 70
     1
102
RTVSPropertyOp6
 70
     1
102
RTVSPropertyOp7
 70
     1
102
RTVSPropertyOp8
 70
     1
102
RTVSPropertyOp9
 70
     1
102
RTVSPropertyOp10
 70
     1
102
RTVSPropertyOp11
 70
     1
102
RTVSPropertyOp12
 70
     1
102
RTVSPropertyOp13
 70
     1
102
RTVSPropertyOp14
 70
     1
102
RTVSPropertyOp15
 70
     1
102
RTVSPropertyOp16
 70
     1
102
RTVSPropertyOp17
 70
     1
102
RTVSPropertyOp18
 70
     1
102
RTVSPropertyOp19
 70
     1
102
RTVSPropertyOp20
 70
     1
102
RTVSPropertyOp21
 70
     1
102
RTVSPropertyOp22
 70
     1
102
RTVSPropertyOp23
 70
     1
102
RTVSPropertyOp24
 70
     1
102
RTVSPropertyOp25
 70
     1
102
RTVSPropertyOp26
 70
     1
102
RTVSPropertyOp27
 70
     1
  0
XRECORD
  5
14A
102
{ACAD_REACTORS
330
149
102
}
330
149
100
AcDbXrecord
280
     1
102
RTVSPropertyOp0
 70
     1
102
RTVSPropertyOp1
 70
     1
102
RTVSPropertyOp2
 70
     1
102
RTVSPropertyOp3
 70
     1
102
RTVSPropertyOp4
 70
     1
102
RTVSPropertyOp5
 70
     1
102
RTVSPropertyOp6
 70
     1
102
RTVSPropertyOp7
 70
     1
102
RTVSPropertyOp8
 70
     1
102
RTVSPropertyOp9
 70
     1
102
RTVSPropertyOp10
 70
     1
102
RTVSPropertyOp11
 70
     1
102
RTVSPropertyOp12
 70
     1
102
RTVSPropertyOp13
 70
     1
102
RTVSPropertyOp14
 70
     1
102
RTVSPropertyOp15
 70
     1
102
RTVSPropertyOp16
 70
     1
102
RTVSPropertyOp17
 70
     1
102
RTVSPropertyOp18
 70
     1
102
RTVSPropertyOp19
 70
     1
102
RTVSPropertyOp20
 70
     1
102
RTVSPropertyOp21
 70
     1
102
RTVSPropertyOp22
 70
     1
102
RTVSPropertyOp23
 70
     1
102
RTVSPropertyOp24
 70
     1
102
RTVSPropertyOp25
 70
     1
102
RTVSPropertyOp26
 70
     1
102
RTVSPropertyOp27
 70
     1
  0
XRECORD
  5
13E
102
{ACAD_REACTORS
330
13D
102
}
330
13D
100
AcDbXrecord
280
     1
102
RTVSPropertyOp0
 70
     1
102
RTVSPropertyOp1
 70
     1
102
RTVSPropertyOp2
 70
     1
102
RTVSPropertyOp3
 70
     1
102
RTVSPropertyOp4
 70
     1
102
RTVSPropertyOp5
 70
     1
102
RTVSPropertyOp6
 70
     1
102
RTVSPropertyOp7
 70
     1
102
RTVSPropertyOp8
 70
     1
102
RTVSPropertyOp9
 70
     1
102
RTVSPropertyOp10
 70
     1
102
RTVSPropertyOp11
 70
     1
102
RTVSPropertyOp12
 70
     1
102
RTVSPropertyOp13
 70
     1
102
RTVSPropertyOp14
 70
     1
102
RTVSPropertyOp15
 70
     1
102
RTVSPropertyOp16
 70
     1
102
RTVSPropertyOp17
 70
     1
102
RTVSPropertyOp18
 70
     1
102
RTVSPropertyOp19
 70
     1
102
RTVSPropertyOp20
 70
     1
102
RTVSPropertyOp21
 70
     1
102
RTVSPropertyOp22
 70
     1
102
RTVSPropertyOp23
 70
     1
102
RTVSPropertyOp24
 70
     1
102
RTVSPropertyOp25
 70
     1
102
RTVSPropertyOp26
 70
     1
102
RTVSPropertyOp27
 70
     1
  0
XRECORD
  5
140
102
{ACAD_REACTORS
330
13F
102
}
330
13F
100
AcDbXrecord
280
     1
102
RTVSPropertyOp0
 70
     1
102
RTVSPropertyOp1
 70
     1
102
RTVSPropertyOp2
 70
     1
102
RTVSPropertyOp3
 70
     1
102
RTVSPropertyOp4
 70
     1
102
RTVSPropertyOp5
 70
     1
102
RTVSPropertyOp6
 70
     1
102
RTVSPropertyOp7
 70
     1
102
RTVSPropertyOp8
 70
     1
102
RTVSPropertyOp9
 70
     1
102
RTVSPropertyOp10
 70
     1
102
RTVSPropertyOp11
 70
     1
102
RTVSPropertyOp12
 70
     1
102
RTVSPropertyOp13
 70
     1
102
RTVSPropertyOp14
 70
     1
102
RTVSPropertyOp15
 70
     1
102
RTVSPropertyOp16
 70
     1
102
RTVSPropertyOp17
 70
     1
102
RTVSPropertyOp18
 70
     1
102
RTVSPropertyOp19
 70
     1
102
RTVSPropertyOp20
 70
     1
102
RTVSPropertyOp21
 70
     1
102
RTVSPropertyOp22
 70
     1
102
RTVSPropertyOp23
 70
     1
102
RTVSPropertyOp24
 70
     1
102
RTVSPropertyOp25
 70
     1
102
RTVSPropertyOp26
 70
     1
102
RTVSPropertyOp27
 70
     1
  0
XRECORD
  5
148
102
{ACAD_REACTORS
330
147
102
}
330
147
100
AcDbXrecord
280
     1
102
RTVSPropertyOp0
 70
     1
102
RTVSPropertyOp1
 70
     1
102
RTVSPropertyOp2
 70
     1
102
RTVSPropertyOp3
 70
     1
102
RTVSPropertyOp4
 70
     1
102
RTVSPropertyOp5
 70
     1
102
RTVSPropertyOp6
 70
     1
102
RTVSPropertyOp7
 70
     1
102
RTVSPropertyOp8
 70
     1
102
RTVSPropertyOp9
 70
     1
102
RTVSPropertyOp10
 70
     1
102
RTVSPropertyOp11
 70
     1
102
RTVSPropertyOp12
 70
     1
102
RTVSPropertyOp13
 70
     1
102
RTVSPropertyOp14
 70
     1
102
RTVSPropertyOp15
 70
     1
102
RTVSPropertyOp16
 70
     1
102
RTVSPropertyOp17
 70
     1
102
RTVSPropertyOp18
 70
     1
102
RTVSPropertyOp19
 70
     1
102
RTVSPropertyOp20
 70
     1
102
RTVSPropertyOp21
 70
     1
102
RTVSPropertyOp22
 70
     1
102
RTVSPropertyOp23
 70
     1
102
RTVSPropertyOp24
 70
     1
102
RTVSPropertyOp25
 70
     1
102
RTVSPropertyOp26
 70
     1
102
RTVSPropertyOp27
 70
     1
  0
XRECORD
  5
12C
102
{ACAD_REACTORS
330
12B
102
}
330
12B
100
AcDbXrecord
280
     1
102
RTVSPropertyOp0
 70
     1
102
RTVSPropertyOp1
 70
     1
102
RTVSPropertyOp2
 70
     1
102
RTVSPropertyOp3
 70
     1
102
RTVSPropertyOp4
 70
     1
102
RTVSPropertyOp5
 70
     1
102
RTVSPropertyOp6
 70
     1
102
RTVSPropertyOp7
 70
     1
102
RTVSPropertyOp8
 70
     1
102
RTVSPropertyOp9
 70
     1
102
RTVSPropertyOp10
 70
     1
102
RTVSPropertyOp11
 70
     1
102
RTVSPropertyOp12
 70
     1
102
RTVSPropertyOp13
 70
     1
102
RTVSPropertyOp14
 70
     1
102
RTVSPropertyOp15
 70
     1
102
RTVSPropertyOp16
 70
     1
102
RTVSPropertyOp17
 70
     1
102
RTVSPropertyOp18
 70
     1
102
RTVSPropertyOp19
 70
     1
102
RTVSPropertyOp20
 70
     1
102
RTVSPropertyOp21
 70
     1
102
RTVSPropertyOp22
 70
     1
102
RTVSPropertyOp23
 70
     1
102
RTVSPropertyOp24
 70
     1
102
RTVSPropertyOp25
 70
     1
102
RTVSPropertyOp26
 70
     1
102
RTVSPropertyOp27
 70
     1
  0
XRECORD
  5
12E
102
{ACAD_REACTORS
330
12D
102
}
330
12D
100
AcDbXrecord
280
     1
102
RTVSPropertyOp0
 70
     1
102
RTVSPropertyOp1
 70
     1
102
RTVSPropertyOp2
 70
     1
102
RTVSPropertyOp3
 70
     1
102
RTVSPropertyOp4
 70
     1
102
RTVSPropertyOp5
 70
     1
102
RTVSPropertyOp6
 70
     1
102
RTVSPropertyOp7
 70
     1
102
RTVSPropertyOp8
 70
     1
102
RTVSPropertyOp9
 70
     1
102
RTVSPropertyOp10
 70
     1
102
RTVSPropertyOp11
 70
     1
102
RTVSPropertyOp12
 70
     1
102
RTVSPropertyOp13
 70
     1
102
RTVSPropertyOp14
 70
     1
102
RTVSPropertyOp15
 70
     1
102
RTVSPropertyOp16
 70
     1
102
RTVSPropertyOp17
 70
     1
102
RTVSPropertyOp18
 70
     1
102
RTVSPropertyOp19
 70
     1
102
RTVSPropertyOp20
 70
     1
102
RTVSPropertyOp21
 70
     1
102
RTVSPropertyOp22
 70
     1
102
RTVSPropertyOp23
 70
     1
102
RTVSPropertyOp24
 70
     1
102
RTVSPropertyOp25
 70
     1
102
RTVSPropertyOp26
 70
     1
102
RTVSPropertyOp27
 70
     1
  0
XRECORD
  5
130
102
{ACAD_REACTORS
330
12F
102
}
330
12F
100
AcDbXrecord
280
     1
102
RTVSPropertyOp0
 70
     1
102
RTVSPropertyOp1
 70
     1
102
RTVSPropertyOp2
 70
     1
102
RTVSPropertyOp3
 70
     1
102
RTVSPropertyOp4
 70
     1
102
RTVSPropertyOp5
 70
     1
102
RTVSPropertyOp6
 70
     1
102
RTVSPropertyOp7
 70
     1
102
RTVSPropertyOp8
 70
     1
102
RTVSPropertyOp9
 70
     1
102
RTVSPropertyOp10
 70
     1
102
RTVSPropertyOp11
 70
     1
102
RTVSPropertyOp12
 70
     1
102
RTVSPropertyOp13
 70
     1
102
RTVSPropertyOp14
 70
     1
102
RTVSPropertyOp15
 70
     1
102
RTVSPropertyOp16
 70
     1
102
RTVSPropertyOp17
 70
     1
102
RTVSPropertyOp18
 70
     1
102
RTVSPropertyOp19
 70
     1
102
RTVSPropertyOp20
 70
     1
102
RTVSPropertyOp21
 70
     1
102
RTVSPropertyOp22
 70
     1
102
RTVSPropertyOp23
 70
     1
102
RTVSPropertyOp24
 70
     1
102
RTVSPropertyOp25
 70
     1
102
RTVSPropertyOp26
 70
     1
102
RTVSPropertyOp27
 70
     1
  0
XRECORD
  5
132
102
{ACAD_REACTORS
330
131
102
}
330
131
100
AcDbXrecord
280
     1
102
RTVSPropertyOp0
 70
     1
102
RTVSPropertyOp1
 70
     1
102
RTVSPropertyOp2
 70
     1
102
RTVSPropertyOp3
 70
     1
102
RTVSPropertyOp4
 70
     1
102
RTVSPropertyOp5
 70
     1
102
RTVSPropertyOp6
 70
     1
102
RTVSPropertyOp7
 70
     1
102
RTVSPropertyOp8
 70
     1
102
RTVSPropertyOp9
 70
     1
102
RTVSPropertyOp10
 70
     1
102
RTVSPropertyOp11
 70
     1
102
RTVSPropertyOp12
 70
     1
102
RTVSPropertyOp13
 70
     1
102
RTVSPropertyOp14
 70
     1
102
RTVSPropertyOp15
 70
     1
102
RTVSPropertyOp16
 70
     1
102
RTVSPropertyOp17
 70
     1
102
RTVSPropertyOp18
 70
     1
102
RTVSPropertyOp19
 70
     1
102
RTVSPropertyOp20
 70
     1
102
RTVSPropertyOp21
 70
     1
102
RTVSPropertyOp22
 70
     1
102
RTVSPropertyOp23
 70
     1
102
RTVSPropertyOp24
 70
     1
102
RTVSPropertyOp25
 70
     1
102
RTVSPropertyOp26
 70
     1
102
RTVSPropertyOp27
 70
     1
  0
XRECORD
  5
146
102
{ACAD_REACTORS
330
145
102
}
330
145
100
AcDbXrecord
280
     1
102
RTVSPropertyOp0
 70
     1
102
RTVSPropertyOp1
 70
     1
102
RTVSPropertyOp2
 70
     1
102
RTVSPropertyOp3
 70
     1
102
RTVSPropertyOp4
 70
     1
102
RTVSPropertyOp5
 70
     1
102
RTVSPropertyOp6
 70
     1
102
RTVSPropertyOp7
 70
     1
102
RTVSPropertyOp8
 70
     1
102
RTVSPropertyOp9
 70
     1
102
RTVSPropertyOp10
 70
     1
102
RTVSPropertyOp11
 70
     1
102
RTVSPropertyOp12
 70
     1
102
RTVSPropertyOp13
 70
     1
102
RTVSPropertyOp14
 70
     1
102
RTVSPropertyOp15
 70
     1
102
RTVSPropertyOp16
 70
     1
102
RTVSPropertyOp17
 70
     1
102
RTVSPropertyOp18
 70
     1
102
RTVSPropertyOp19
 70
     1
102
RTVSPropertyOp20
 70
     1
102
RTVSPropertyOp21
 70
     1
102
RTVSPropertyOp22
 70
     1
102
RTVSPropertyOp23
 70
     1
102
RTVSPropertyOp24
 70
     1
102
RTVSPropertyOp25
 70
     1
102
RTVSPropertyOp26
 70
     1
102
RTVSPropertyOp27
 70
     1
  0
XRECORD
  5
13C
102
{ACAD_REACTORS
330
13B
102
}
330
13B
100
AcDbXrecord
280
     1
102
RTVSPropertyOp0
 70
     1
102
RTVSPropertyOp1
 70
     1
102
RTVSPropertyOp2
 70
     1
102
RTVSPropertyOp3
 70
     1
102
RTVSPropertyOp4
 70
     1
102
RTVSPropertyOp5
 70
     1
102
RTVSPropertyOp6
 70
     1
102
RTVSPropertyOp7
 70
     1
102
RTVSPropertyOp8
 70
     1
102
RTVSPropertyOp9
 70
     1
102
RTVSPropertyOp10
 70
     1
102
RTVSPropertyOp11
 70
     1
102
RTVSPropertyOp12
 70
     1
102
RTVSPropertyOp13
 70
     1
102
RTVSPropertyOp14
 70
     1
102
RTVSPropertyOp15
 70
     1
102
RTVSPropertyOp16
 70
     1
102
RTVSPropertyOp17
 70
     1
102
RTVSPropertyOp18
 70
     1
102
RTVSPropertyOp19
 70
     1
102
RTVSPropertyOp20
 70
     1
102
RTVSPropertyOp21
 70
     1
102
RTVSPropertyOp22
 70
     1
102
RTVSPropertyOp23
 70
     1
102
RTVSPropertyOp24
 70
     1
102
RTVSPropertyOp25
 70
     1
102
RTVSPropertyOp26
 70
     1
102
RTVSPropertyOp27
 70
     1
  0
XRECORD
  5
144
102
{ACAD_REACTORS
330
143
102
}
330
143
100
AcDbXrecord
280
     1
102
RTVSPropertyOp0
 70
     1
102
RTVSPropertyOp1
 70
     1
102
RTVSPropertyOp2
 70
     1
102
RTVSPropertyOp3
 70
     1
102
RTVSPropertyOp4
 70
     1
102
RTVSPropertyOp5
 70
     1
102
RTVSPropertyOp6
 70
     1
102
RTVSPropertyOp7
 70
     1
102
RTVSPropertyOp8
 70
     1
102
RTVSPropertyOp9
 70
     1
102
RTVSPropertyOp10
 70
     1
102
RTVSPropertyOp11
 70
     1
102
RTVSPropertyOp12
 70
     1
102
RTVSPropertyOp13
 70
     1
102
RTVSPropertyOp14
 70
     1
102
RTVSPropertyOp15
 70
     1
102
RTVSPropertyOp16
 70
     1
102
RTVSPropertyOp17
 70
     1
102
RTVSPropertyOp18
 70
     1
102
RTVSPropertyOp19
 70
     1
102
RTVSPropertyOp20
 70
     1
102
RTVSPropertyOp21
 70
     1
102
RTVSPropertyOp22
 70
     1
102
RTVSPropertyOp23
 70
     1
102
RTVSPropertyOp24
 70
     1
102
RTVSPropertyOp25
 70
     1
102
RTVSPropertyOp26
 70
     1
102
RTVSPropertyOp27
 70
     1
  0
ENDSEC
  0
EOF
