  0
SECTION
  2
HEADER
  9
$ACADVER
  1
AC1021
  9
$ACADMAINTVER
 70
    25
  9
$DWGCODEPAGE
  3
ANSI_1250
  9
$INSBASE
 10
0.0
 20
0.0
 30
0.0
  9
$EXTMIN
 10
-8.91921
 20
-13.09375
 30
0.0
  9
$EXTMAX
 10
9.49978
 20
11.79736
 30
0.0
  9
$LIMMIN
 10
0.0
 20
0.0
  9
$LIMMAX
 10
12.0
 20
9.0
  9
$ORTHOMODE
 70
     0
  9
$REGENMODE
 70
     1
  9
$FILLMODE
 70
     1
  9
$QTEXTMODE
 70
     0
  9
$MIRRTEXT
 70
     1
  9
$LTSCALE
 40
1.0
  9
$ATTMODE
 70
     1
  9
$TEXTSIZE
 40
0.2
  9
$TRACEWID
 40
0.05
  9
$TEXTSTYLE
  7
Standard
  9
$CLAYER
  8
0
  9
$CELTYPE
  6
ByLayer
  9
$CECOLOR
 62
   256
  9
$CELTSCALE
 40
1.0
  9
$DISPSILH
 70
     0
  9
$DIMSCALE
 40
1.0
  9
$DIMASZ
 40
0.18
  9
$DIMEXO
 40
0.0625
  9
$DIMDLI
 40
0.38
  9
$DIMRND
 40
0.0
  9
$DIMDLE
 40
0.0
  9
$DIMEXE
 40
0.18
  9
$DIMTP
 40
0.0
  9
$DIMTM
 40
0.0
  9
$DIMTXT
 40
0.18
  9
$DIMCEN
 40
0.09
  9
$DIMTSZ
 40
0.0
  9
$DIMTOL
 70
     0
  9
$DIMLIM
 70
     0
  9
$DIMTIH
 70
     1
  9
$DIMTOH
 70
     1
  9
$DIMSE1
 70
     0
  9
$DIMSE2
 70
     0
  9
$DIMTAD
 70
     0
  9
$DIMZIN
 70
     0
  9
$DIMBLK
  1

  9
$DIMASO
 70
     1
  9
$DIMSHO
 70
     1
  9
$DIMPOST
  1

  9
$DIMAPOST
  1

  9
$DIMALT
 70
     0
  9
$DIMALTD
 70
     2
  9
$DIMALTF
 40
25.4
  9
$DIMLFAC
 40
1.0
  9
$DIMTOFL
 70
     0
  9
$DIMTVP
 40
0.0
  9
$DIMTIX
 70
     0
  9
$DIMSOXD
 70
     0
  9
$DIMSAH
 70
     0
  9
$DIMBLK1
  1

  9
$DIMBLK2
  1

  9
$DIMSTYLE
  2
Standard
  9
$DIMCLRD
 70
     0
  9
$DIMCLRE
 70
     0
  9
$DIMCLRT
 70
     0
  9
$DIMTFAC
 40
1.0
  9
$DIMGAP
 40
0.09
  9
$DIMJUST
 70
     0
  9
$DIMSD1
 70
     0
  9
$DIMSD2
 70
     0
  9
$DIMTOLJ
 70
     1
  9
$DIMTZIN
 70
     0
  9
$DIMALTZ
 70
     0
  9
$DIMALTTZ
 70
     0
  9
$DIMUPT
 70
     0
  9
$DIMDEC
 70
     4
  9
$DIMTDEC
 70
     4
  9
$DIMALTU
 70
     2
  9
$DIMALTTD
 70
     2
  9
$DIMTXSTY
  7
Standard
  9
$DIMAUNIT
 70
     0
  9
$DIMADEC
 70
     0
  9
$DIMALTRND
 40
0.0
  9
$DIMAZIN
 70
     0
  9
$DIMDSEP
 70
    46
  9
$DIMATFIT
 70
     3
  9
$DIMFRAC
 70
     0
  9
$DIMLDRBLK
  1

  9
$DIMLUNIT
 70
     2
  9
$DIMLWD
 70
    -2
  9
$DIMLWE
 70
    -2
  9
$DIMTMOVE
 70
     0
  9
$DIMFXL
 40
1.0
  9
$DIMFXLON
 70
     0
  9
$DIMJOGANG
 40
0.7853981633974483
  9
$DIMTFILL
 70
     0
  9
$DIMTFILLCLR
 70
     0
  9
$DIMARCSYM
 70
     0
  9
$DIMLTYPE
  6

  9
$DIMLTEX1
  6

  9
$DIMLTEX2
  6

  9
$LUNITS
 70
     2
  9
$LUPREC
 70
     4
  9
$SKETCHINC
 40
0.1
  9
$FILLETRAD
 40
0.5
  9
$AUNITS
 70
     0
  9
$AUPREC
 70
     0
  9
$MENU
  1
.
  9
$ELEVATION
 40
0.0
  9
$PELEVATION
 40
0.0
  9
$THICKNESS
 40
0.0
  9
$LIMCHECK
 70
     0
  9
$CHAMFERA
 40
0.5
  9
$CHAMFERB
 40
0.5
  9
$CHAMFERC
 40
1.0
  9
$CHAMFERD
 40
0.0
  9
$SKPOLY
 70
     0
  9
$TDCREATE
 40
2457571.591401285
  9
$TDUCREATE
 40
2457571.508067952
  9
$TDUPDATE
 40
2457571.591401296
  9
$TDUUPDATE
 40
2457571.508067963
  9
$TDINDWG
 40
0.0000000116
  9
$TDUSRTIMER
 40
0.0000000116
  9
$USRTIMER
 70
     1
  9
$ANGBASE
 50
0.0
  9
$ANGDIR
 70
     0
  9
$PDMODE
 70
     0
  9
$PDSIZE
 40
0.0
  9
$PLINEWID
 40
0.0
  9
$SPLFRAME
 70
     0
  9
$SPLINETYPE
 70
     6
  9
$SPLINESEGS
 70
     8
  9
$HANDSEED
  5
142
  9
$SURFTAB1
 70
     6
  9
$SURFTAB2
 70
     6
  9
$SURFTYPE
 70
     6
  9
$SURFU
 70
     6
  9
$SURFV
 70
     6
  9
$UCSBASE
  2

  9
$UCSNAME
  2

  9
$UCSORG
 10
0.0
 20
0.0
 30
0.0
  9
$UCSXDIR
 10
1.0
 20
0.0
 30
0.0
  9
$UCSYDIR
 10
0.0
 20
1.0
 30
0.0
  9
$UCSORTHOREF
  2

  9
$UCSORTHOVIEW
 70
     0
  9
$UCSORGTOP
 10
0.0
 20
0.0
 30
0.0
  9
$UCSORGBOTTOM
 10
0.0
 20
0.0
 30
0.0
  9
$UCSORGLEFT
 10
0.0
 20
0.0
 30
0.0
  9
$UCSORGRIGHT
 10
0.0
 20
0.0
 30
0.0
  9
$UCSORGFRONT
 10
0.0
 20
0.0
 30
0.0
  9
$UCSORGBACK
 10
0.0
 20
0.0
 30
0.0
  9
$PUCSBASE
  2

  9
$PUCSNAME
  2

  9
$PUCSORG
 10
0.0
 20
0.0
 30
0.0
  9
$PUCSXDIR
 10
1.0
 20
0.0
 30
0.0
  9
$PUCSYDIR
 10
0.0
 20
1.0
 30
0.0
  9
$PUCSORTHOREF
  2

  9
$PUCSORTHOVIEW
 70
     0
  9
$PUCSORGTOP
 10
0.0
 20
0.0
 30
0.0
  9
$PUCSORGBOTTOM
 10
0.0
 20
0.0
 30
0.0
  9
$PUCSORGLEFT
 10
0.0
 20
0.0
 30
0.0
  9
$PUCSORGRIGHT
 10
0.0
 20
0.0
 30
0.0
  9
$PUCSORGFRONT
 10
0.0
 20
0.0
 30
0.0
  9
$PUCSORGBACK
 10
0.0
 20
0.0
 30
0.0
  9
$USERI1
 70
     0
  9
$USERI2
 70
     0
  9
$USERI3
 70
     0
  9
$USERI4
 70
     0
  9
$USERI5
 70
     0
  9
$USERR1
 40
0.0
  9
$USERR2
 40
0.0
  9
$USERR3
 40
0.0
  9
$USERR4
 40
0.0
  9
$USERR5
 40
0.0
  9
$WORLDVIEW
 70
     1
  9
$SHADEDGE
 70
     3
  9
$SHADEDIF
 70
    70
  9
$TILEMODE
 70
     1
  9
$MAXACTVP
 70
    64
  9
$PINSBASE
 10
0.0
 20
0.0
 30
0.0
  9
$PLIMCHECK
 70
     0
  9
$PEXTMIN
 10
1.000000000000000E+20
 20
1.000000000000000E+20
 30
1.000000000000000E+20
  9
$PEXTMAX
 10
-1.000000000000000E+20
 20
-1.000000000000000E+20
 30
-1.000000000000000E+20
  9
$PLIMMIN
 10
0.0
 20
0.0
  9
$PLIMMAX
 10
12.0
 20
9.0
  9
$UNITMODE
 70
     0
  9
$VISRETAIN
 70
     1
  9
$PLINEGEN
 70
     0
  9
$PSLTSCALE
 70
     1
  9
$TREEDEPTH
 70
  3020
  9
$CMLSTYLE
  2
Standard
  9
$CMLJUST
 70
     0
  9
$CMLSCALE
 40
1.0
  9
$PROXYGRAPHICS
 70
     1
  9
$MEASUREMENT
 70
     0
  9
$CELWEIGHT
370
    -1
  9
$ENDCAPS
280
     0
  9
$JOINSTYLE
280
     0
  9
$LWDISPLAY
290
     0
  9
$INSUNITS
 70
     5
  9
$HYPERLINKBASE
  1

  9
$STYLESHEET
  1

  9
$XEDIT
290
     1
  9
$CEPSNTYPE
380
     0
  9
$PSTYLEMODE
290
     1
  9
$FINGERPRINTGUID
  2
{EDD91A79-056C-4BA9-9033-F9D4C0C0E9F6}
  9
$VERSIONGUID
  2
{FAEB1C32-E019-11D5-929B-00C0DF256EC4}
  9
$EXTNAMES
290
     1
  9
$PSVPSCALE
 40
0.0
  9
$OLESTARTUP
290
     0
  9
$SORTENTS
280
   127
  9
$INDEXCTL
280
     0
  9
$HIDETEXT
280
     1
  9
$XCLIPFRAME
290
     0
  9
$HALOGAP
280
     0
  9
$OBSCOLOR
 70
   257
  9
$OBSLTYPE
280
     0
  9
$INTERSECTIONDISPLAY
280
     0
  9
$INTERSECTIONCOLOR
 70
   257
  9
$DIMASSOC
280
     2
  9
$PROJECTNAME
  1

  9
$CAMERADISPLAY
290
     0
  9
$LENSLENGTH
 40
50.0
  9
$CAMERAHEIGHT
 40
0.0
  9
$STEPSPERSEC
 40
2.0
  9
$STEPSIZE
 40
6.0
  9
$3DDWFPREC
 40
2.0
  9
$PSOLWIDTH
 40
0.25
  9
$PSOLHEIGHT
 40
4.0
  9
$LOFTANG1
 40
1.570796326794897
  9
$LOFTANG2
 40
1.570796326794897
  9
$LOFTMAG1
 40
0.0
  9
$LOFTMAG2
 40
0.0
  9
$LOFTPARAM
 70
     7
  9
$LOFTNORMALS
280
     1
  9
$LATITUDE
 40
37.795
  9
$LONGITUDE
 40
-122.394
  9
$NORTHDIRECTION
 40
0.0
  9
$TIMEZONE
 70
 -8000
  9
$LIGHTGLYPHDISPLAY
280
     1
  9
$TILEMODELIGHTSYNCH
280
     1
  9
$SOLIDHIST
280
     1
  9
$SHOWHIST
280
     1
  9
$DWFFRAME
280
     2
  9
$DGNFRAME
280
     2
  9
$REALWORLDSCALE
290
     1
  9
$INTERFERECOLOR
 62
   256
  9
$CSHADOW
280
     0
  9
$SHADOWPLANELOCATION
 40
0.0
  0
ENDSEC
  0
SECTION
  2
CLASSES
  0
CLASS
  1
ACDBDICTIONARYWDFLT
  2
AcDbDictionaryWithDefault
  3
ObjectDBX Classes
 90
        0
 91
        4
280
     0
281
     0
  0
CLASS
  1
VISUALSTYLE
  2
AcDbVisualStyle
  3
ObjectDBX Classes
 90
     4095
 91
        4
280
     0
281
     0
  0
CLASS
  1
MATERIAL
  2
AcDbMaterial
  3
ObjectDBX Classes
 90
     1153
 91
        4
280
     0
281
     0
  0
CLASS
  1
SCALE
  2
AcDbScale
  3
ObjectDBX Classes
 90
     1153
 91
        4
280
     0
281
     0
  0
CLASS
  1
DICTIONARYVAR
  2
AcDbDictionaryVar
  3
ObjectDBX Classes
 90
        0
 91
        4
280
     0
281
     0
  0
ENDSEC
  0
SECTION
  2
TABLES
  0
TABLE
  2
VPORT
  5
8
330
0
100
AcDbSymbolTable
 70
     1
  0
VPORT
  5
29
330
8
100
AcDbSymbolTableRecord
100
AcDbViewportTableRecord
  2
*Active
 70
     0
 10
0.0
 20
0.0
 11
1.0
 21
1.0
 12
10.42990654205607
 22
4.5
 13
0.0
 23
0.0
 14
0.5
 24
0.5
 15
0.5
 25
0.5
 16
0.0
 26
0.0
 36
1.0
 17
0.0
 27
0.0
 37
0.0
 40
9.0
 41
1.972972972850329
 42
50.0
 43
0.0
 44
0.0
 50
0.0
 51
0.0
 71
     0
 72
   100
 73
     1
 74
     3
 75
     0
 76
     0
 77
     0
 78
     0
281
     0
 65
     1
110
0.0
120
0.0
130
0.0
111
1.0
121
0.0
131
0.0
112
0.0
122
1.0
132
0.0
 79
     0
146
0.0
 60
     3
 61
     5
292
     1
282
     1
141
0.0
142
0.0
 63
   250
  0
ENDTAB
  0
TABLE
  2
LTYPE
  5
5
330
0
100
AcDbSymbolTable
 70
     1
  0
LTYPE
  5
14
330
5
100
AcDbSymbolTableRecord
100
AcDbLinetypeTableRecord
  2
ByBlock
 70
     0
  3

 72
    65
 73
     0
 40
0.0
  0
LTYPE
  5
15
330
5
100
AcDbSymbolTableRecord
100
AcDbLinetypeTableRecord
  2
ByLayer
 70
     0
  3

 72
    65
 73
     0
 40
0.0
  0
LTYPE
  5
16
330
5
100
AcDbSymbolTableRecord
100
AcDbLinetypeTableRecord
  2
Continuous
 70
     0
  3
Solid line
 72
    65
 73
     0
 40
0.0
  0
ENDTAB
  0
TABLE
  2
LAYER
  5
2
330
0
100
AcDbSymbolTable
 70
     2
  0
LAYER
  5
10
330
2
100
AcDbSymbolTableRecord
100
AcDbLayerTableRecord
  2
0
 70
     0
 62
     7
  6
Continuous
370
    -3
390
F
347
3E
  0
LAYER
  5
40
330
2
100
AcDbSymbolTableRecord
100
AcDbLayerTableRecord
  2
Warstwa 1
 70
     0
 62
     7
  6
Continuous
370
    -3
390
F
347
3E
  0
ENDTAB
  0
TABLE
  2
STYLE
  5
3
330
0
100
AcDbSymbolTable
 70
     4
  0
STYLE
  5
11
330
3
100
AcDbSymbolTableRecord
100
AcDbTextStyleTableRecord
  2
Standard
 70
     0
 40
0.0
 41
1.0
 50
0.0
 71
     0
 42
0.2
  3
txt
  4

  0
STYLE
  5
44
330
3
100
AcDbSymbolTableRecord
100
AcDbTextStyleTableRecord
  2
0
 70
     0
 40
1.0
 41
1.0
 50
0.0
 71
     0
 42
1.0
  3
Arial
  4

1001
ACAD
1000
Arial
1071
    60962
  0
STYLE
  5
69
330
3
100
AcDbSymbolTableRecord
100
AcDbTextStyleTableRecord
  2
1
 70
     0
 40
1.0
 41
1.0
 50
0.0
 71
     0
 42
1.0
  3
Arial
  4

1001
ACAD
1000
Arial
1071
    60962
  0
STYLE
  5
6E
330
3
100
AcDbSymbolTableRecord
100
AcDbTextStyleTableRecord
  2
2
 70
     0
 40
1.0
 41
1.0
 50
0.0
 71
     0
 42
1.0
  3
Arial
  4

1001
ACAD
1000
Arial
1071
    60962
  0
ENDTAB
  0
TABLE
  2
VIEW
  5
6
330
0
100
AcDbSymbolTable
 70
     0
  0
ENDTAB
  0
TABLE
  2
UCS
  5
7
330
0
100
AcDbSymbolTable
 70
     0
  0
ENDTAB
  0
TABLE
  2
APPID
  5
9
330
0
100
AcDbSymbolTable
 70
     2
  0
APPID
  5
12
330
9
100
AcDbSymbolTableRecord
100
AcDbRegAppTableRecord
  2
ACAD
 70
     0
  0
APPID
  5
3F
330
9
100
AcDbSymbolTableRecord
100
AcDbRegAppTableRecord
  2
ODA
 70
     0
  0
ENDTAB
  0
TABLE
  2
DIMSTYLE
  5
A
330
0
100
AcDbSymbolTable
 70
     1
100
AcDbDimStyleTable
  0
DIMSTYLE
105
27
330
A
100
AcDbSymbolTableRecord
100
AcDbDimStyleTableRecord
  2
Standard
 70
     0
340
11
  0
ENDTAB
  0
TABLE
  2
BLOCK_RECORD
  5
1
330
0
100
AcDbSymbolTable
 70
     1
  0
BLOCK_RECORD
  5
1F
330
1
100
AcDbSymbolTableRecord
100
AcDbBlockTableRecord
  2
*Model_Space
340
22
 70
     0
280
     1
281
     0
  0
BLOCK_RECORD
  5
1B
330
1
100
AcDbSymbolTableRecord
100
AcDbBlockTableRecord
  2
*Paper_Space
340
1E
 70
     0
280
     1
281
     0
  0
BLOCK_RECORD
  5
23
330
1
100
AcDbSymbolTableRecord
100
AcDbBlockTableRecord
  2
*Paper_Space0
340
26
 70
     0
280
     1
281
     0
  0
ENDTAB
  0
ENDSEC
  0
SECTION
  2
BLOCKS
  0
BLOCK
  5
20
330
1F
100
AcDbEntity
  8
0
100
AcDbBlockBegin
  2
*Model_Space
 70
     0
 10
0.0
 20
0.0
 30
0.0
  3
*Model_Space
  1

  0
ENDBLK
  5
21
330
1F
100
AcDbEntity
  8
0
100
AcDbBlockEnd
  0
BLOCK
  5
1C
330
1B
100
AcDbEntity
 67
     1
  8
0
100
AcDbBlockBegin
  2
*Paper_Space
 70
     0
 10
0.0
 20
0.0
 30
0.0
  3
*Paper_Space
  1

  0
ENDBLK
  5
1D
330
1B
100
AcDbEntity
 67
     1
  8
0
100
AcDbBlockEnd
  0
BLOCK
  5
24
330
23
100
AcDbEntity
  8
0
100
AcDbBlockBegin
  2
*Paper_Space0
 70
     0
 10
0.0
 20
0.0
 30
0.0
  3
*Paper_Space0
  1

  0
ENDBLK
  5
25
330
23
100
AcDbEntity
  8
0
100
AcDbBlockEnd
  0
ENDSEC
  0
SECTION
  2
ENTITIES
  0
SPLINE
  5
41
330
1F
100
AcDbEntity
  8
Warstwa 1
100
AcDbSpline
210
0.0
220
0.0
230
1.0
 70
    11
 71
     3
 72
    72
 73
    68
 74
     0
 42
0.0000000001
 43
0.0000000001
 40
0.0
 40
0.0
 40
0.0
 40
0.0
 40
0.0555555555555556
 40
0.0555555555555556
 40
0.0555555555555556
 40
0.0555555555555556
 40
0.1111111111111111
 40
0.1111111111111111
 40
0.1111111111111111
 40
0.1111111111111111
 40
0.1666666666666667
 40
0.1666666666666667
 40
0.1666666666666667
 40
0.1666666666666667
 40
0.2222222222222222
 40
0.2222222222222222
 40
0.2222222222222222
 40
0.2222222222222222
 40
0.2777777777777778
 40
0.2777777777777778
 40
0.2777777777777778
 40
0.2777777777777778
 40
0.3333333333333333
 40
0.3333333333333333
 40
0.3333333333333333
 40
0.3333333333333333
 40
0.3888888888888889
 40
0.3888888888888889
 40
0.3888888888888889
 40
0.3888888888888889
 40
0.4444444444444444
 40
0.4444444444444444
 40
0.4444444444444444
 40
0.4444444444444444
 40
0.5
 40
0.5
 40
0.5
 40
0.5
 40
0.5555555555555556
 40
0.5555555555555556
 40
0.5555555555555556
 40
0.5555555555555556
 40
0.6111111111111112
 40
0.6111111111111112
 40
0.6111111111111112
 40
0.6111111111111112
 40
0.6666666666666666
 40
0.6666666666666666
 40
0.6666666666666666
 40
0.6666666666666666
 40
0.7222222222222222
 40
0.7222222222222222
 40
0.7222222222222222
 40
0.7222222222222222
 40
0.7777777777777778
 40
0.7777777777777778
 40
0.7777777777777778
 40
0.7777777777777778
 40
0.8333333333333334
 40
0.8333333333333334
 40
0.8333333333333334
 40
0.8333333333333334
 40
0.8888888888888888
 40
0.8888888888888888
 40
0.8888888888888888
 40
0.8888888888888888
 40
1.0
 40
1.0
 40
1.0
 40
1.0
 10
-7.46061
 20
3.05151
 30
0.0
 10
-7.46061
 20
3.05151
 30
0.0
 10
-7.58558
 20
3.04309
 30
0.0
 10
-7.58558
 20
3.04309
 30
0.0
 10
-7.58558
 20
3.04309
 30
0.0
 10
-7.58558
 20
3.04309
 30
0.0
 10
-7.59748
 20
0.34923
 30
0.0
 10
-7.59748
 20
0.34923
 30
0.0
 10
-7.59748
 20
0.34923
 30
0.0
 10
-7.59748
 20
0.31556
 30
0.0
 10
-7.58558
 20
0.1977
 30
0.0
 10
-7.58558
 20
0.18929
 30
0.0
 10
-7.58558
 20
0.18929
 30
0.0
 10
-7.58558
 20
0.18929
 30
0.0
 10
-7.59748
 20
-5.05532
 30
0.0
 10
-7.59748
 20
-5.05532
 30
0.0
 10
-7.59748
 20
-5.05532
 30
0.0
 10
-7.59748
 20
-5.08057
 30
0.0
 10
-7.59153
 20
-5.09741
 30
0.0
 10
-7.58558
 20
-5.11425
 30
0.0
 10
-7.58558
 20
-5.11425
 30
0.0
 10
-7.53202
 20
-5.13108
 30
0.0
 10
-0.40271
 20
-5.1395
 30
0.0
 10
-0.367
 20
-5.12266
 30
0.0
 10
-0.367
 20
-5.12266
 30
0.0
 10
-0.3432
 20
-5.05532
 30
0.0
 10
-0.36105
 20
-2.40355
 30
0.0
 10
-0.36105
 20
-2.09208
 30
0.0
 10
-0.36105
 20
-2.09208
 30
0.0
 10
-0.36105
 20
-2.09208
 30
0.0
 10
-0.36105
 20
2.92523
 30
0.0
 10
-0.36105
 20
2.92523
 30
0.0
 10
-0.36105
 20
2.92523
 30
0.0
 10
-0.36105
 20
3.07676
 30
0.0
 10
-0.3551
 20
3.04309
 30
0.0
 10
-0.49792
 20
3.05151
 30
0.0
 10
-0.49792
 20
3.05151
 30
0.0
 10
-0.51578
 20
3.15253
 30
0.0
 10
-0.47412
 20
3.33773
 30
0.0
 10
-0.53363
 20
3.40508
 30
0.0
 10
-0.53363
 20
3.40508
 30
0.0
 10
-0.55743
 20
3.42191
 30
0.0
 10
-2.49151
 20
3.4135
 30
0.0
 10
-2.51532
 20
3.39666
 30
0.0
 10
-2.51532
 20
3.39666
 30
0.0
 10
-2.58673
 20
3.35457
 30
0.0
 10
-2.51532
 20
3.30406
 30
0.0
 10
-2.59863
 20
3.30406
 30
0.0
 10
-2.59863
 20
3.30406
 30
0.0
 10
-2.59863
 20
3.30406
 30
0.0
 10
-5.40156
 20
3.30406
 30
0.0
 10
-5.40156
 20
3.30406
 30
0.0
 10
-5.40156
 20
3.30406
 30
0.0
 10
-5.43726
 20
3.44717
 30
0.0
 10
-5.43726
 20
3.40508
 30
0.0
 10
-5.60389
 20
3.40508
 30
0.0
 10
-5.60389
 20
3.40508
 30
0.0
 10
-5.60389
 20
3.40508
 30
0.0
 10
-7.22257
 20
3.40508
 30
0.0
 10
-7.22257
 20
3.40508
 30
0.0
 10
-7.22257
 20
3.40508
 30
0.0
 10
-7.34159
 20
3.40508
 30
0.0
 10
-7.44871
 20
3.44717
 30
0.0
 10
-7.45466
 20
3.32089
 30
0.0
 10
-7.45466
 20
3.32089
 30
0.0
 10
-7.46061
 20
3.22829
 30
0.0
 10
-7.44276
 20
3.15253
 30
0.0
 10
-7.46061
 20
3.05151
 30
0.0
  0
LWPOLYLINE
  5
42
330
1F
100
AcDbEntity
  8
Warstwa 1
 62
     7
100
AcDbPolyline
 90
        5
 70
     1
 43
0.0
 10
-2.46872
 20
3.05745
 10
-0.56286
 20
3.05745
 10
-0.56286
 20
3.36089
 10
-2.46872
 20
3.36089
 10
-2.46872
 20
3.05745
  0
LWPOLYLINE
  5
43
330
1F
100
AcDbEntity
  8
Warstwa 1
 62
     7
100
AcDbPolyline
 90
        5
 70
     1
 43
0.0
 10
-7.39734
 20
3.05745
 10
-5.48278
 20
3.05745
 10
-5.48278
 20
3.36089
 10
-7.39734
 20
3.36089
 10
-7.39734
 20
3.05745
  0
TEXT
  5
67
330
1F
100
AcDbEntity
  8
Warstwa 1
100
AcDbText
 10
-8.716341444444446
 20
-1.847475277777778
 30
0.0
 40
0.2031984
  1
  850  
 50
90.0
 51
-0.0000015352345087
  7
0
100
AcDbText
  0
TEXT
  5
68
330
1F
100
AcDbEntity
  8
Warstwa 1
100
AcDbText
 10
-8.055377
 20
1.553401842222223
 30
0.0
 40
0.2031984
  1
  40  
 50
90.0
 51
-0.0000015352345087
  7
0
100
AcDbText
  0
TEXT
  5
6A
330
1F
100
AcDbEntity
  8
Warstwa 1
100
AcDbText
 10
0.194260777777778
 20
5.882047264444447
 30
0.0
 40
0.2031984
  1
  
 50
90.0
 51
-0.0000015352345087
  7
1
100
AcDbText
  0
SPLINE
  5
6B
330
1F
100
AcDbEntity
  8
Warstwa 1
370
    13
100
AcDbSpline
210
0.0
220
0.0
230
1.0
 70
    11
 71
     3
 72
   168
 73
   164
 74
     0
 42
0.0000000001
 43
0.0000000001
 40
0.0
 40
0.0
 40
0.0
 40
0.0
 40
0.0238095238095238
 40
0.0238095238095238
 40
0.0238095238095238
 40
0.0238095238095238
 40
0.0476190476190476
 40
0.0476190476190476
 40
0.0476190476190476
 40
0.0476190476190476
 40
0.0714285714285714
 40
0.0714285714285714
 40
0.0714285714285714
 40
0.0714285714285714
 40
0.0952380952380952
 40
0.0952380952380952
 40
0.0952380952380952
 40
0.0952380952380952
 40
0.119047619047619
 40
0.119047619047619
 40
0.119047619047619
 40
0.119047619047619
 40
0.1428571428571428
 40
0.1428571428571428
 40
0.1428571428571428
 40
0.1428571428571428
 40
0.1666666666666667
 40
0.1666666666666667
 40
0.1666666666666667
 40
0.1666666666666667
 40
0.1904761904761905
 40
0.1904761904761905
 40
0.1904761904761905
 40
0.1904761904761905
 40
0.2142857142857143
 40
0.2142857142857143
 40
0.2142857142857143
 40
0.2142857142857143
 40
0.2380952380952381
 40
0.2380952380952381
 40
0.2380952380952381
 40
0.2380952380952381
 40
0.2619047619047619
 40
0.2619047619047619
 40
0.2619047619047619
 40
0.2619047619047619
 40
0.2857142857142857
 40
0.2857142857142857
 40
0.2857142857142857
 40
0.2857142857142857
 40
0.3095238095238095
 40
0.3095238095238095
 40
0.3095238095238095
 40
0.3095238095238095
 40
0.3333333333333333
 40
0.3333333333333333
 40
0.3333333333333333
 40
0.3333333333333333
 40
0.3571428571428572
 40
0.3571428571428572
 40
0.3571428571428572
 40
0.3571428571428572
 40
0.3809523809523809
 40
0.3809523809523809
 40
0.3809523809523809
 40
0.3809523809523809
 40
0.4047619047619048
 40
0.4047619047619048
 40
0.4047619047619048
 40
0.4047619047619048
 40
0.4285714285714285
 40
0.4285714285714285
 40
0.4285714285714285
 40
0.4285714285714285
 40
0.4523809523809524
 40
0.4523809523809524
 40
0.4523809523809524
 40
0.4523809523809524
 40
0.4761904761904762
 40
0.4761904761904762
 40
0.4761904761904762
 40
0.4761904761904762
 40
0.5
 40
0.5
 40
0.5
 40
0.5
 40
0.5238095238095238
 40
0.5238095238095238
 40
0.5238095238095238
 40
0.5238095238095238
 40
0.5476190476190477
 40
0.5476190476190477
 40
0.5476190476190477
 40
0.5476190476190477
 40
0.5714285714285714
 40
0.5714285714285714
 40
0.5714285714285714
 40
0.5714285714285714
 40
0.5952380952380952
 40
0.5952380952380952
 40
0.5952380952380952
 40
0.5952380952380952
 40
0.6190476190476191
 40
0.6190476190476191
 40
0.6190476190476191
 40
0.6190476190476191
 40
0.6428571428571429
 40
0.6428571428571429
 40
0.6428571428571429
 40
0.6428571428571429
 40
0.6666666666666666
 40
0.6666666666666666
 40
0.6666666666666666
 40
0.6666666666666666
 40
0.6904761904761905
 40
0.6904761904761905
 40
0.6904761904761905
 40
0.6904761904761905
 40
0.7142857142857143
 40
0.7142857142857143
 40
0.7142857142857143
 40
0.7142857142857143
 40
0.7380952380952381
 40
0.7380952380952381
 40
0.7380952380952381
 40
0.7380952380952381
 40
0.7619047619047619
 40
0.7619047619047619
 40
0.7619047619047619
 40
0.7619047619047619
 40
0.7857142857142857
 40
0.7857142857142857
 40
0.7857142857142857
 40
0.7857142857142857
 40
0.8095238095238095
 40
0.8095238095238095
 40
0.8095238095238095
 40
0.8095238095238095
 40
0.8333333333333334
 40
0.8333333333333334
 40
0.8333333333333334
 40
0.8333333333333334
 40
0.8571428571428571
 40
0.8571428571428571
 40
0.8571428571428571
 40
0.8571428571428571
 40
0.8809523809523809
 40
0.8809523809523809
 40
0.8809523809523809
 40
0.8809523809523809
 40
0.9047619047619048
 40
0.9047619047619048
 40
0.9047619047619048
 40
0.9047619047619048
 40
0.9285714285714286
 40
0.9285714285714286
 40
0.9285714285714286
 40
0.9285714285714286
 40
0.9523809523809523
 40
0.9523809523809523
 40
0.9523809523809523
 40
0.9523809523809523
 40
1.0
 40
1.0
 40
1.0
 40
1.0
 10
0.09983
 20
6.28088
 30
0.0
 10
0.09983
 20
6.28088
 30
0.0
 10
0.08635
 20
6.27986
 30
0.0
 10
0.08635
 20
6.27986
 30
0.0
 10
0.08635
 20
6.27986
 30
0.0
 10
0.08635
 20
6.27986
 30
0.0
 10
0.07316
 20
6.27676
 30
0.0
 10
0.07316
 20
6.27676
 30
0.0
 10
0.07316
 20
6.27676
 30
0.0
 10
0.07316
 20
6.27676
 30
0.0
 10
0.06067
 20
6.27171
 30
0.0
 10
0.06067
 20
6.27171
 30
0.0
 10
0.06067
 20
6.27171
 30
0.0
 10
0.06067
 20
6.27171
 30
0.0
 10
0.04903
 20
6.2648
 30
0.0
 10
0.04903
 20
6.2648
 30
0.0
 10
0.04903
 20
6.2648
 30
0.0
 10
0.04903
 20
6.2648
 30
0.0
 10
0.03859
 20
6.25619
 30
0.0
 10
0.03859
 20
6.25619
 30
0.0
 10
0.03859
 20
6.25619
 30
0.0
 10
0.03859
 20
6.25619
 30
0.0
 10
0.02959
 20
6.2461
 30
0.0
 10
0.02959
 20
6.2461
 30
0.0
 10
0.02959
 20
6.2461
 30
0.0
 10
0.02959
 20
6.2461
 30
0.0
 10
0.02225
 20
6.23474
 30
0.0
 10
0.02225
 20
6.23474
 30
0.0
 10
0.02225
 20
6.23474
 30
0.0
 10
0.02225
 20
6.23474
 30
0.0
 10
0.01671
 20
6.22239
 30
0.0
 10
0.01671
 20
6.22239
 30
0.0
 10
0.01671
 20
6.22239
 30
0.0
 10
0.01671
 20
6.22239
 30
0.0
 10
0.01308
 20
6.20934
 30
0.0
 10
0.01308
 20
6.20934
 30
0.0
 10
0.01308
 20
6.20934
 30
0.0
 10
0.01308
 20
6.20934
 30
0.0
 10
0.01153
 20
6.1959
 30
0.0
 10
0.01153
 20
6.1959
 30
0.0
 10
0.01153
 20
6.1959
 30
0.0
 10
0.01153
 20
6.1959
 30
0.0
 10
0.01209
 20
6.18239
 30
0.0
 10
0.01209
 20
6.18239
 30
0.0
 10
0.01209
 20
6.18239
 30
0.0
 10
0.01209
 20
6.18239
 30
0.0
 10
0.01463
 20
6.16912
 30
0.0
 10
0.01463
 20
6.16912
 30
0.0
 10
0.01463
 20
6.16912
 30
0.0
 10
0.01463
 20
6.16912
 30
0.0
 10
0.01922
 20
6.15639
 30
0.0
 10
0.01922
 20
6.15639
 30
0.0
 10
0.01922
 20
6.15639
 30
0.0
 10
0.01922
 20
6.15639
 30
0.0
 10
0.02568
 20
6.1445
 30
0.0
 10
0.02568
 20
6.1445
 30
0.0
 10
0.02568
 20
6.1445
 30
0.0
 10
0.02568
 20
6.1445
 30
0.0
 10
0.03386
 20
6.13374
 30
0.0
 10
0.03386
 20
6.13374
 30
0.0
 10
0.03386
 20
6.13374
 30
0.0
 10
0.03386
 20
6.13374
 30
0.0
 10
0.04363
 20
6.12436
 30
0.0
 10
0.04363
 20
6.12436
 30
0.0
 10
0.04363
 20
6.12436
 30
0.0
 10
0.04363
 20
6.12436
 30
0.0
 10
0.05471
 20
6.1166
 30
0.0
 10
0.05471
 20
6.1166
 30
0.0
 10
0.05471
 20
6.1166
 30
0.0
 10
0.05471
 20
6.1166
 30
0.0
 10
0.06681
 20
6.1106
 30
0.0
 10
0.06681
 20
6.1106
 30
0.0
 10
0.06681
 20
6.1106
 30
0.0
 10
0.06681
 20
6.1106
 30
0.0
 10
0.07972
 20
6.10651
 30
0.0
 10
0.07972
 20
6.10651
 30
0.0
 10
0.07972
 20
6.10651
 30
0.0
 10
0.07972
 20
6.10651
 30
0.0
 10
0.09309
 20
6.10443
 30
0.0
 10
0.09309
 20
6.10443
 30
0.0
 10
0.09309
 20
6.10443
 30
0.0
 10
0.09309
 20
6.10443
 30
0.0
 10
0.1066
 20
6.10443
 30
0.0
 10
0.1066
 20
6.10443
 30
0.0
 10
0.1066
 20
6.10443
 30
0.0
 10
0.1066
 20
6.10443
 30
0.0
 10
0.11997
 20
6.10651
 30
0.0
 10
0.11997
 20
6.10651
 30
0.0
 10
0.11997
 20
6.10651
 30
0.0
 10
0.11997
 20
6.10651
 30
0.0
 10
0.13288
 20
6.1106
 30
0.0
 10
0.13288
 20
6.1106
 30
0.0
 10
0.13288
 20
6.1106
 30
0.0
 10
0.13288
 20
6.1106
 30
0.0
 10
0.14498
 20
6.1166
 30
0.0
 10
0.14498
 20
6.1166
 30
0.0
 10
0.14498
 20
6.1166
 30
0.0
 10
0.14498
 20
6.1166
 30
0.0
 10
0.15606
 20
6.12436
 30
0.0
 10
0.15606
 20
6.12436
 30
0.0
 10
0.15606
 20
6.12436
 30
0.0
 10
0.15606
 20
6.12436
 30
0.0
 10
0.1658
 20
6.13374
 30
0.0
 10
0.1658
 20
6.13374
 30
0.0
 10
0.1658
 20
6.13374
 30
0.0
 10
0.1658
 20
6.13374
 30
0.0
 10
0.17402
 20
6.1445
 30
0.0
 10
0.17402
 20
6.1445
 30
0.0
 10
0.17402
 20
6.1445
 30
0.0
 10
0.17402
 20
6.1445
 30
0.0
 10
0.18044
 20
6.15639
 30
0.0
 10
0.18044
 20
6.15639
 30
0.0
 10
0.18044
 20
6.15639
 30
0.0
 10
0.18044
 20
6.15639
 30
0.0
 10
0.18503
 20
6.16912
 30
0.0
 10
0.18503
 20
6.16912
 30
0.0
 10
0.18503
 20
6.16912
 30
0.0
 10
0.18503
 20
6.16912
 30
0.0
 10
0.1876
 20
6.18239
 30
0.0
 10
0.1876
 20
6.18239
 30
0.0
 10
0.1876
 20
6.18239
 30
0.0
 10
0.1876
 20
6.18239
 30
0.0
 10
0.18813
 20
6.1959
 30
0.0
 10
0.18813
 20
6.1959
 30
0.0
 10
0.18813
 20
6.1959
 30
0.0
 10
0.18813
 20
6.1959
 30
0.0
 10
0.18658
 20
6.20934
 30
0.0
 10
0.18658
 20
6.20934
 30
0.0
 10
0.18658
 20
6.20934
 30
0.0
 10
0.18658
 20
6.20934
 30
0.0
 10
0.18298
 20
6.22239
 30
0.0
 10
0.18298
 20
6.22239
 30
0.0
 10
0.18298
 20
6.22239
 30
0.0
 10
0.18298
 20
6.22239
 30
0.0
 10
0.17744
 20
6.23474
 30
0.0
 10
0.17744
 20
6.23474
 30
0.0
 10
0.17744
 20
6.23474
 30
0.0
 10
0.17744
 20
6.23474
 30
0.0
 10
0.1701
 20
6.2461
 30
0.0
 10
0.1701
 20
6.2461
 30
0.0
 10
0.1701
 20
6.2461
 30
0.0
 10
0.1701
 20
6.2461
 30
0.0
 10
0.16111
 20
6.25619
 30
0.0
 10
0.16111
 20
6.25619
 30
0.0
 10
0.16111
 20
6.25619
 30
0.0
 10
0.16111
 20
6.25619
 30
0.0
 10
0.15066
 20
6.2648
 30
0.0
 10
0.15066
 20
6.2648
 30
0.0
 10
0.15066
 20
6.2648
 30
0.0
 10
0.15066
 20
6.2648
 30
0.0
 10
0.13902
 20
6.27171
 30
0.0
 10
0.13902
 20
6.27171
 30
0.0
 10
0.13902
 20
6.27171
 30
0.0
 10
0.13902
 20
6.27171
 30
0.0
 10
0.1265
 20
6.27676
 30
0.0
 10
0.1265
 20
6.27676
 30
0.0
 10
0.1265
 20
6.27676
 30
0.0
 10
0.1265
 20
6.27676
 30
0.0
 10
0.11334
 20
6.27986
 30
0.0
 10
0.11334
 20
6.27986
 30
0.0
 10
0.11334
 20
6.27986
 30
0.0
 10
0.11334
 20
6.27986
 30
0.0
 10
0.09983
 20
6.28088
 30
0.0
 10
0.09983
 20
6.28088
 30
0.0
  0
SPLINE
  5
6C
330
1F
100
AcDbEntity
  8
Warstwa 1
370
    13
100
AcDbSpline
210
0.0
220
0.0
230
1.0
 70
    24
 71
     3
 72
     8
 73
     4
 74
     0
 42
0.0000000001
 43
0.0000000001
 40
0.0
 40
0.0
 40
0.0
 40
0.0
 40
1.0
 40
1.0
 40
1.0
 40
1.0
 10
0.22605
 20
6.14203
 30
0.0
 10
0.22605
 20
6.14203
 30
0.0
 10
-0.02639
 20
6.24303
 30
0.0
 10
-0.02639
 20
6.24303
 30
0.0
  0
TEXT
  5
6D
330
1F
100
AcDbEntity
  8
Warstwa 1
100
AcDbText
 10
0.194327805555556
 20
6.338313250000002
 30
0.0
 40
0.2031984
  1
180  
 50
90.0
 51
-0.0000015352345087
  7
0
100
AcDbText
  0
TEXT
  5
6F
330
1F
100
AcDbEntity
  8
Warstwa 1
100
AcDbText
 10
0.6086300277777762
 20
5.881761006444446
 30
0.0
 40
0.2031984
  1
  
 50
90.0
 51
-0.0000015352345087
  7
2
100
AcDbText
  0
SPLINE
  5
70
330
1F
100
AcDbEntity
  8
Warstwa 1
370
    13
100
AcDbSpline
210
0.0
220
0.0
230
1.0
 70
    11
 71
     3
 72
   168
 73
   164
 74
     0
 42
0.0000000001
 43
0.0000000001
 40
0.0
 40
0.0
 40
0.0
 40
0.0
 40
0.0238095238095238
 40
0.0238095238095238
 40
0.0238095238095238
 40
0.0238095238095238
 40
0.0476190476190476
 40
0.0476190476190476
 40
0.0476190476190476
 40
0.0476190476190476
 40
0.0714285714285714
 40
0.0714285714285714
 40
0.0714285714285714
 40
0.0714285714285714
 40
0.0952380952380952
 40
0.0952380952380952
 40
0.0952380952380952
 40
0.0952380952380952
 40
0.119047619047619
 40
0.119047619047619
 40
0.119047619047619
 40
0.119047619047619
 40
0.1428571428571428
 40
0.1428571428571428
 40
0.1428571428571428
 40
0.1428571428571428
 40
0.1666666666666667
 40
0.1666666666666667
 40
0.1666666666666667
 40
0.1666666666666667
 40
0.1904761904761905
 40
0.1904761904761905
 40
0.1904761904761905
 40
0.1904761904761905
 40
0.2142857142857143
 40
0.2142857142857143
 40
0.2142857142857143
 40
0.2142857142857143
 40
0.2380952380952381
 40
0.2380952380952381
 40
0.2380952380952381
 40
0.2380952380952381
 40
0.2619047619047619
 40
0.2619047619047619
 40
0.2619047619047619
 40
0.2619047619047619
 40
0.2857142857142857
 40
0.2857142857142857
 40
0.2857142857142857
 40
0.2857142857142857
 40
0.3095238095238095
 40
0.3095238095238095
 40
0.3095238095238095
 40
0.3095238095238095
 40
0.3333333333333333
 40
0.3333333333333333
 40
0.3333333333333333
 40
0.3333333333333333
 40
0.3571428571428572
 40
0.3571428571428572
 40
0.3571428571428572
 40
0.3571428571428572
 40
0.3809523809523809
 40
0.3809523809523809
 40
0.3809523809523809
 40
0.3809523809523809
 40
0.4047619047619048
 40
0.4047619047619048
 40
0.4047619047619048
 40
0.4047619047619048
 40
0.4285714285714285
 40
0.4285714285714285
 40
0.4285714285714285
 40
0.4285714285714285
 40
0.4523809523809524
 40
0.4523809523809524
 40
0.4523809523809524
 40
0.4523809523809524
 40
0.4761904761904762
 40
0.4761904761904762
 40
0.4761904761904762
 40
0.4761904761904762
 40
0.5
 40
0.5
 40
0.5
 40
0.5
 40
0.5238095238095238
 40
0.5238095238095238
 40
0.5238095238095238
 40
0.5238095238095238
 40
0.5476190476190477
 40
0.5476190476190477
 40
0.5476190476190477
 40
0.5476190476190477
 40
0.5714285714285714
 40
0.5714285714285714
 40
0.5714285714285714
 40
0.5714285714285714
 40
0.5952380952380952
 40
0.5952380952380952
 40
0.5952380952380952
 40
0.5952380952380952
 40
0.6190476190476191
 40
0.6190476190476191
 40
0.6190476190476191
 40
0.6190476190476191
 40
0.6428571428571429
 40
0.6428571428571429
 40
0.6428571428571429
 40
0.6428571428571429
 40
0.6666666666666666
 40
0.6666666666666666
 40
0.6666666666666666
 40
0.6666666666666666
 40
0.6904761904761905
 40
0.6904761904761905
 40
0.6904761904761905
 40
0.6904761904761905
 40
0.7142857142857143
 40
0.7142857142857143
 40
0.7142857142857143
 40
0.7142857142857143
 40
0.7380952380952381
 40
0.7380952380952381
 40
0.7380952380952381
 40
0.7380952380952381
 40
0.7619047619047619
 40
0.7619047619047619
 40
0.7619047619047619
 40
0.7619047619047619
 40
0.7857142857142857
 40
0.7857142857142857
 40
0.7857142857142857
 40
0.7857142857142857
 40
0.8095238095238095
 40
0.8095238095238095
 40
0.8095238095238095
 40
0.8095238095238095
 40
0.8333333333333334
 40
0.8333333333333334
 40
0.8333333333333334
 40
0.8333333333333334
 40
0.8571428571428571
 40
0.8571428571428571
 40
0.8571428571428571
 40
0.8571428571428571
 40
0.8809523809523809
 40
0.8809523809523809
 40
0.8809523809523809
 40
0.8809523809523809
 40
0.9047619047619048
 40
0.9047619047619048
 40
0.9047619047619048
 40
0.9047619047619048
 40
0.9285714285714286
 40
0.9285714285714286
 40
0.9285714285714286
 40
0.9285714285714286
 40
0.9523809523809523
 40
0.9523809523809523
 40
0.9523809523809523
 40
0.9523809523809523
 40
1.0
 40
1.0
 40
1.0
 40
1.0
 10
0.51413
 20
6.28088
 30
0.0
 10
0.51413
 20
6.28088
 30
0.0
 10
0.50066
 20
6.27986
 30
0.0
 10
0.50066
 20
6.27986
 30
0.0
 10
0.50066
 20
6.27986
 30
0.0
 10
0.50066
 20
6.27986
 30
0.0
 10
0.48746
 20
6.27676
 30
0.0
 10
0.48746
 20
6.27676
 30
0.0
 10
0.48746
 20
6.27676
 30
0.0
 10
0.48746
 20
6.27676
 30
0.0
 10
0.47494
 20
6.27171
 30
0.0
 10
0.47494
 20
6.27171
 30
0.0
 10
0.47494
 20
6.27171
 30
0.0
 10
0.47494
 20
6.27171
 30
0.0
 10
0.4633
 20
6.2648
 30
0.0
 10
0.4633
 20
6.2648
 30
0.0
 10
0.4633
 20
6.2648
 30
0.0
 10
0.4633
 20
6.2648
 30
0.0
 10
0.45286
 20
6.25619
 30
0.0
 10
0.45286
 20
6.25619
 30
0.0
 10
0.45286
 20
6.25619
 30
0.0
 10
0.45286
 20
6.25619
 30
0.0
 10
0.44386
 20
6.2461
 30
0.0
 10
0.44386
 20
6.2461
 30
0.0
 10
0.44386
 20
6.2461
 30
0.0
 10
0.44386
 20
6.2461
 30
0.0
 10
0.43652
 20
6.23474
 30
0.0
 10
0.43652
 20
6.23474
 30
0.0
 10
0.43652
 20
6.23474
 30
0.0
 10
0.43652
 20
6.23474
 30
0.0
 10
0.43099
 20
6.22239
 30
0.0
 10
0.43099
 20
6.22239
 30
0.0
 10
0.43099
 20
6.22239
 30
0.0
 10
0.43099
 20
6.22239
 30
0.0
 10
0.42739
 20
6.20934
 30
0.0
 10
0.42739
 20
6.20934
 30
0.0
 10
0.42739
 20
6.20934
 30
0.0
 10
0.42739
 20
6.20934
 30
0.0
 10
0.42583
 20
6.1959
 30
0.0
 10
0.42583
 20
6.1959
 30
0.0
 10
0.42583
 20
6.1959
 30
0.0
 10
0.42583
 20
6.1959
 30
0.0
 10
0.42636
 20
6.18239
 30
0.0
 10
0.42636
 20
6.18239
 30
0.0
 10
0.42636
 20
6.18239
 30
0.0
 10
0.42636
 20
6.18239
 30
0.0
 10
0.42894
 20
6.16912
 30
0.0
 10
0.42894
 20
6.16912
 30
0.0
 10
0.42894
 20
6.16912
 30
0.0
 10
0.42894
 20
6.16912
 30
0.0
 10
0.43353
 20
6.15639
 30
0.0
 10
0.43353
 20
6.15639
 30
0.0
 10
0.43353
 20
6.15639
 30
0.0
 10
0.43353
 20
6.15639
 30
0.0
 10
0.43995
 20
6.1445
 30
0.0
 10
0.43995
 20
6.1445
 30
0.0
 10
0.43995
 20
6.1445
 30
0.0
 10
0.43995
 20
6.1445
 30
0.0
 10
0.44817
 20
6.13374
 30
0.0
 10
0.44817
 20
6.13374
 30
0.0
 10
0.44817
 20
6.13374
 30
0.0
 10
0.44817
 20
6.13374
 30
0.0
 10
0.45794
 20
6.12436
 30
0.0
 10
0.45794
 20
6.12436
 30
0.0
 10
0.45794
 20
6.12436
 30
0.0
 10
0.45794
 20
6.12436
 30
0.0
 10
0.46898
 20
6.1166
 30
0.0
 10
0.46898
 20
6.1166
 30
0.0
 10
0.46898
 20
6.1166
 30
0.0
 10
0.46898
 20
6.1166
 30
0.0
 10
0.48108
 20
6.1106
 30
0.0
 10
0.48108
 20
6.1106
 30
0.0
 10
0.48108
 20
6.1106
 30
0.0
 10
0.48108
 20
6.1106
 30
0.0
 10
0.49399
 20
6.10651
 30
0.0
 10
0.49399
 20
6.10651
 30
0.0
 10
0.49399
 20
6.10651
 30
0.0
 10
0.49399
 20
6.10651
 30
0.0
 10
0.50736
 20
6.10443
 30
0.0
 10
0.50736
 20
6.10443
 30
0.0
 10
0.50736
 20
6.10443
 30
0.0
 10
0.50736
 20
6.10443
 30
0.0
 10
0.52087
 20
6.10443
 30
0.0
 10
0.52087
 20
6.10443
 30
0.0
 10
0.52087
 20
6.10443
 30
0.0
 10
0.52087
 20
6.10443
 30
0.0
 10
0.53428
 20
6.10651
 30
0.0
 10
0.53428
 20
6.10651
 30
0.0
 10
0.53428
 20
6.10651
 30
0.0
 10
0.53428
 20
6.10651
 30
0.0
 10
0.54715
 20
6.1106
 30
0.0
 10
0.54715
 20
6.1106
 30
0.0
 10
0.54715
 20
6.1106
 30
0.0
 10
0.54715
 20
6.1106
 30
0.0
 10
0.55929
 20
6.1166
 30
0.0
 10
0.55929
 20
6.1166
 30
0.0
 10
0.55929
 20
6.1166
 30
0.0
 10
0.55929
 20
6.1166
 30
0.0
 10
0.57033
 20
6.12436
 30
0.0
 10
0.57033
 20
6.12436
 30
0.0
 10
0.57033
 20
6.12436
 30
0.0
 10
0.57033
 20
6.12436
 30
0.0
 10
0.5801
 20
6.13374
 30
0.0
 10
0.5801
 20
6.13374
 30
0.0
 10
0.5801
 20
6.13374
 30
0.0
 10
0.5801
 20
6.13374
 30
0.0
 10
0.58829
 20
6.1445
 30
0.0
 10
0.58829
 20
6.1445
 30
0.0
 10
0.58829
 20
6.1445
 30
0.0
 10
0.58829
 20
6.1445
 30
0.0
 10
0.59474
 20
6.15639
 30
0.0
 10
0.59474
 20
6.15639
 30
0.0
 10
0.59474
 20
6.15639
 30
0.0
 10
0.59474
 20
6.15639
 30
0.0
 10
0.59933
 20
6.16912
 30
0.0
 10
0.59933
 20
6.16912
 30
0.0
 10
0.59933
 20
6.16912
 30
0.0
 10
0.59933
 20
6.16912
 30
0.0
 10
0.60191
 20
6.18239
 30
0.0
 10
0.60191
 20
6.18239
 30
0.0
 10
0.60191
 20
6.18239
 30
0.0
 10
0.60191
 20
6.18239
 30
0.0
 10
0.60244
 20
6.1959
 30
0.0
 10
0.60244
 20
6.1959
 30
0.0
 10
0.60244
 20
6.1959
 30
0.0
 10
0.60244
 20
6.1959
 30
0.0
 10
0.60088
 20
6.20934
 30
0.0
 10
0.60088
 20
6.20934
 30
0.0
 10
0.60088
 20
6.20934
 30
0.0
 10
0.60088
 20
6.20934
 30
0.0
 10
0.59725
 20
6.22239
 30
0.0
 10
0.59725
 20
6.22239
 30
0.0
 10
0.59725
 20
6.22239
 30
0.0
 10
0.59725
 20
6.22239
 30
0.0
 10
0.59175
 20
6.23474
 30
0.0
 10
0.59175
 20
6.23474
 30
0.0
 10
0.59175
 20
6.23474
 30
0.0
 10
0.59175
 20
6.23474
 30
0.0
 10
0.58441
 20
6.2461
 30
0.0
 10
0.58441
 20
6.2461
 30
0.0
 10
0.58441
 20
6.2461
 30
0.0
 10
0.58441
 20
6.2461
 30
0.0
 10
0.57541
 20
6.25619
 30
0.0
 10
0.57541
 20
6.25619
 30
0.0
 10
0.57541
 20
6.25619
 30
0.0
 10
0.57541
 20
6.25619
 30
0.0
 10
0.56493
 20
6.2648
 30
0.0
 10
0.56493
 20
6.2648
 30
0.0
 10
0.56493
 20
6.2648
 30
0.0
 10
0.56493
 20
6.2648
 30
0.0
 10
0.55333
 20
6.27171
 30
0.0
 10
0.55333
 20
6.27171
 30
0.0
 10
0.55333
 20
6.27171
 30
0.0
 10
0.55333
 20
6.27171
 30
0.0
 10
0.5408
 20
6.27676
 30
0.0
 10
0.5408
 20
6.27676
 30
0.0
 10
0.5408
 20
6.27676
 30
0.0
 10
0.5408
 20
6.27676
 30
0.0
 10
0.52761
 20
6.27986
 30
0.0
 10
0.52761
 20
6.27986
 30
0.0
 10
0.52761
 20
6.27986
 30
0.0
 10
0.52761
 20
6.27986
 30
0.0
 10
0.51413
 20
6.28088
 30
0.0
 10
0.51413
 20
6.28088
 30
0.0
  0
SPLINE
  5
71
330
1F
100
AcDbEntity
  8
Warstwa 1
370
    13
100
AcDbSpline
210
0.0
220
0.0
230
1.0
 70
    24
 71
     3
 72
     8
 73
     4
 74
     0
 42
0.0000000001
 43
0.0000000001
 40
0.0
 40
0.0
 40
0.0
 40
0.0
 40
1.0
 40
1.0
 40
1.0
 40
1.0
 10
0.64036
 20
6.14203
 30
0.0
 10
0.64036
 20
6.14203
 30
0.0
 10
0.38791
 20
6.24303
 30
0.0
 10
0.38791
 20
6.24303
 30
0.0
  0
TEXT
  5
72
330
1F
100
AcDbEntity
  8
Warstwa 1
100
AcDbText
 10
0.6086159166666679
 20
6.338277972222222
 30
0.0
 40
0.2031984
  1
200  
 50
90.0
 51
-0.0000015352345087
  7
0
100
AcDbText
  0
TEXT
  5
73
330
1F
100
AcDbEntity
  8
Warstwa 1
100
AcDbText
 10
-8.70641075
 20
7.411274443333336
 30
0.0
 40
0.2031984
  1
  570  
 50
90.0
 51
-0.0000015352345087
  7
0
100
AcDbText
  0
TEXT
  5
74
330
1F
100
AcDbEntity
  8
Warstwa 1
100
AcDbText
 10
-8.042059638888889
 20
9.436854903777782
 30
0.0
 40
0.2031984
  1
  123  
 50
90.0
 51
-0.0000015352345087
  7
0
100
AcDbText
  0
TEXT
  5
75
330
1F
100
AcDbEntity
  8
Warstwa 1
100
AcDbText
 10
-8.042059638888889
 20
7.492489419333335
 30
0.0
 40
0.2031984
  1
  280,5  
 50
90.0
 51
-0.0000015352345087
  7
0
100
AcDbText
  0
TEXT
  5
76
330
1F
100
AcDbEntity
  8
Warstwa 1
100
AcDbText
 10
-4.376952527777777
 20
11.594494
 30
0.0
 40
0.2031984
  1
  725  
 41
0.9991999999999992
 51
-0.0000015352345087
  7
0
100
AcDbText
  0
TEXT
  5
77
330
1F
100
AcDbEntity
  8
Warstwa 1
100
AcDbText
 10
-4.381182474444444
 20
11.14180955555556
 30
0.0
 40
0.2031984
  1
  490  
 41
0.9991999999999992
 51
-0.0000015352345087
  7
0
100
AcDbText
  0
TEXT
  5
78
330
1F
100
AcDbEntity
  8
Warstwa 1
100
AcDbText
 10
6.012360478444444
 20
4.452296222222222
 30
0.0
 40
0.2031984
  1
  10/25  
 41
0.9991999999999992
 51
-0.0000015352345087
  7
0
100
AcDbText
  0
TEXT
  5
79
330
1F
100
AcDbEntity
  8
Warstwa 1
100
AcDbText
 10
3.339130027777779
 20
-6.660274333333334
 30
0.0
 40
0.2031984
  1
  235  
 50
90.0
 51
-0.0000015352345087
  7
0
100
AcDbText
  0
TEXT
  5
7A
330
1F
100
AcDbEntity
  8
Warstwa 1
100
AcDbText
 10
-8.645154416666665
 20
-11.21705487911111
 30
0.0
 40
0.2031984
  1
  265  
 50
90.0
 51
-0.0000015352345087
  7
0
100
AcDbText
  0
TEXT
  5
7B
330
1F
100
AcDbEntity
  8
Warstwa 1
100
AcDbText
 10
-8.128123305555555
 20
-11.21959284711111
 30
0.0
 40
0.2031984
  1
  250  
 50
90.0
 51
-0.0000015352345087
  7
0
100
AcDbText
  0
TEXT
  5
7C
330
1F
100
AcDbEntity
  8
Warstwa 1
100
AcDbText
 10
-7.471783777777779
 20
-12.65804688888889
 30
0.0
 40
0.2031984
  1
  100  
 41
0.9991999999999992
 51
-0.0000015352345087
  7
0
100
AcDbText
  0
TEXT
  5
7D
330
1F
100
AcDbEntity
  8
Warstwa 1
100
AcDbText
 10
-1.291267704888887
 20
-12.92446466666667
 30
0.0
 40
0.2031984
  1
  100  
 41
0.9991999999999992
 51
-0.0000015352345087
  7
0
100
AcDbText
  0
SPLINE
  5
7E
330
1F
100
AcDbEntity
  8
Warstwa 1
370
    13
100
AcDbSpline
210
0.0
220
0.0
230
1.0
 70
    11
 71
     3
 72
    16
 73
    12
 74
     0
 42
0.0000000001
 43
0.0000000001
 40
0.0
 40
0.0
 40
0.0
 40
0.0
 40
0.25
 40
0.25
 40
0.25
 40
0.25
 40
0.5
 40
0.5
 40
0.5
 40
0.5
 40
1.0
 40
1.0
 40
1.0
 40
1.0
 10
-0.36691
 20
-12.98774
 30
0.0
 10
-0.36691
 20
-12.98774
 30
0.0
 10
-0.03671
 20
-12.93694
 30
0.0
 10
-0.03671
 20
-12.93694
 30
0.0
 10
-0.03671
 20
-12.93694
 30
0.0
 10
-0.03671
 20
-12.93694
 30
0.0
 10
-0.03671
 20
-13.03851
 30
0.0
 10
-0.03671
 20
-13.03851
 30
0.0
 10
-0.03671
 20
-13.03851
 30
0.0
 10
-0.03671
 20
-13.03851
 30
0.0
 10
-0.36691
 20
-12.98774
 30
0.0
 10
-0.36691
 20
-12.98774
 30
0.0
  0
SPLINE
  5
7F
330
1F
100
AcDbEntity
  8
Warstwa 1
370
    13
100
AcDbSpline
210
0.0
220
0.0
230
1.0
 70
    11
 71
     3
 72
    16
 73
    12
 74
     0
 42
0.0000000001
 43
0.0000000001
 40
0.0
 40
0.0
 40
0.0
 40
0.0
 40
0.25
 40
0.25
 40
0.25
 40
0.25
 40
0.5
 40
0.5
 40
0.5
 40
0.5
 40
1.0
 40
1.0
 40
1.0
 40
1.0
 10
-1.37942
 20
-12.98774
 30
0.0
 10
-1.37942
 20
-12.98774
 30
0.0
 10
-1.70962
 20
-13.03851
 30
0.0
 10
-1.70962
 20
-13.03851
 30
0.0
 10
-1.70962
 20
-13.03851
 30
0.0
 10
-1.70962
 20
-13.03851
 30
0.0
 10
-1.70962
 20
-12.93694
 30
0.0
 10
-1.70962
 20
-12.93694
 30
0.0
 10
-1.70962
 20
-12.93694
 30
0.0
 10
-1.70962
 20
-12.93694
 30
0.0
 10
-1.37942
 20
-12.98774
 30
0.0
 10
-1.37942
 20
-12.98774
 30
0.0
  0
SPLINE
  5
80
330
1F
100
AcDbEntity
  8
Warstwa 1
370
    13
100
AcDbSpline
210
0.0
220
0.0
230
1.0
 70
    11
 71
     3
 72
    16
 73
    12
 74
     0
 42
0.0000000001
 43
0.0000000001
 40
0.0
 40
0.0
 40
0.0
 40
0.0
 40
0.25
 40
0.25
 40
0.25
 40
0.25
 40
0.5
 40
0.5
 40
0.5
 40
0.5
 40
1.0
 40
1.0
 40
1.0
 40
1.0
 10
-7.59192
 20
11.53121
 30
0.0
 10
-7.59192
 20
11.53121
 30
0.0
 10
-7.26172
 20
11.58201
 30
0.0
 10
-7.26172
 20
11.58201
 30
0.0
 10
-7.26172
 20
11.58201
 30
0.0
 10
-7.26172
 20
11.58201
 30
0.0
 10
-7.26172
 20
11.48041
 30
0.0
 10
-7.26172
 20
11.48041
 30
0.0
 10
-7.26172
 20
11.48041
 30
0.0
 10
-7.26172
 20
11.48041
 30
0.0
 10
-7.59192
 20
11.53121
 30
0.0
 10
-7.59192
 20
11.53121
 30
0.0
  0
SPLINE
  5
81
330
1F
100
AcDbEntity
  8
Warstwa 1
370
    13
100
AcDbSpline
210
0.0
220
0.0
230
1.0
 70
    11
 71
     3
 72
    16
 73
    12
 74
     0
 42
0.0000000001
 43
0.0000000001
 40
0.0
 40
0.0
 40
0.0
 40
0.0
 40
0.25
 40
0.25
 40
0.25
 40
0.25
 40
0.5
 40
0.5
 40
0.5
 40
0.5
 40
1.0
 40
1.0
 40
1.0
 40
1.0
 10
-0.36692
 20
11.53121
 30
0.0
 10
-0.36692
 20
11.53121
 30
0.0
 10
-0.69712
 20
11.48041
 30
0.0
 10
-0.69712
 20
11.48041
 30
0.0
 10
-0.69712
 20
11.48041
 30
0.0
 10
-0.69712
 20
11.48041
 30
0.0
 10
-0.69712
 20
11.58201
 30
0.0
 10
-0.69712
 20
11.58201
 30
0.0
 10
-0.69712
 20
11.58201
 30
0.0
 10
-0.69712
 20
11.58201
 30
0.0
 10
-0.36692
 20
11.53121
 30
0.0
 10
-0.36692
 20
11.53121
 30
0.0
  0
SPLINE
  5
82
330
1F
100
AcDbEntity
  8
Warstwa 1
370
    13
100
AcDbSpline
210
0.0
220
0.0
230
1.0
 70
    11
 71
     3
 72
    16
 73
    12
 74
     0
 42
0.0000000001
 43
0.0000000001
 40
0.0
 40
0.0
 40
0.0
 40
0.0
 40
0.25
 40
0.25
 40
0.25
 40
0.25
 40
0.5
 40
0.5
 40
0.5
 40
0.5
 40
1.0
 40
1.0
 40
1.0
 40
1.0
 10
-6.42941
 20
11.07842
 30
0.0
 10
-6.42941
 20
11.07842
 30
0.0
 10
-6.09921
 20
11.12922
 30
0.0
 10
-6.09921
 20
11.12922
 30
0.0
 10
-6.09921
 20
11.12922
 30
0.0
 10
-6.09921
 20
11.12922
 30
0.0
 10
-6.09921
 20
11.02762
 30
0.0
 10
-6.09921
 20
11.02762
 30
0.0
 10
-6.09921
 20
11.02762
 30
0.0
 10
-6.09921
 20
11.02762
 30
0.0
 10
-6.42941
 20
11.07842
 30
0.0
 10
-6.42941
 20
11.07842
 30
0.0
  0
SPLINE
  5
83
330
1F
100
AcDbEntity
  8
Warstwa 1
370
    13
100
AcDbSpline
210
0.0
220
0.0
230
1.0
 70
    11
 71
     3
 72
    16
 73
    12
 74
     0
 42
0.0000000001
 43
0.0000000001
 40
0.0
 40
0.0
 40
0.0
 40
0.0
 40
0.25
 40
0.25
 40
0.25
 40
0.25
 40
0.5
 40
0.5
 40
0.5
 40
0.5
 40
1.0
 40
1.0
 40
1.0
 40
1.0
 10
-1.52943
 20
11.07842
 30
0.0
 10
-1.52943
 20
11.07842
 30
0.0
 10
-1.85963
 20
11.02762
 30
0.0
 10
-1.85963
 20
11.02762
 30
0.0
 10
-1.85963
 20
11.02762
 30
0.0
 10
-1.85963
 20
11.02762
 30
0.0
 10
-1.85963
 20
11.12922
 30
0.0
 10
-1.85963
 20
11.12922
 30
0.0
 10
-1.85963
 20
11.12922
 30
0.0
 10
-1.85963
 20
11.12922
 30
0.0
 10
-1.52943
 20
11.07842
 30
0.0
 10
-1.52943
 20
11.07842
 30
0.0
  0
SPLINE
  5
84
330
1F
100
AcDbEntity
  8
Warstwa 1
370
    13
100
AcDbSpline
210
0.0
220
0.0
230
1.0
 70
    11
 71
     3
 72
    16
 73
    12
 74
     0
 42
0.0000000001
 43
0.0000000001
 40
0.0
 40
0.0
 40
0.0
 40
0.0
 40
0.25
 40
0.25
 40
0.25
 40
0.25
 40
0.5
 40
0.5
 40
0.5
 40
0.5
 40
1.0
 40
1.0
 40
1.0
 40
1.0
 10
-7.5844
 20
-12.72135
 30
0.0
 10
-7.5844
 20
-12.72135
 30
0.0
 10
-7.9146
 20
-12.77215
 30
0.0
 10
-7.9146
 20
-12.77215
 30
0.0
 10
-7.9146
 20
-12.77215
 30
0.0
 10
-7.9146
 20
-12.77215
 30
0.0
 10
-7.9146
 20
-12.67055
 30
0.0
 10
-7.9146
 20
-12.67055
 30
0.0
 10
-7.9146
 20
-12.67055
 30
0.0
 10
-7.9146
 20
-12.67055
 30
0.0
 10
-7.5844
 20
-12.72135
 30
0.0
 10
-7.5844
 20
-12.72135
 30
0.0
  0
SPLINE
  5
85
330
1F
100
AcDbEntity
  8
Warstwa 1
370
    13
100
AcDbSpline
210
0.0
220
0.0
230
1.0
 70
    11
 71
     3
 72
    16
 73
    12
 74
     0
 42
0.0000000001
 43
0.0000000001
 40
0.0
 40
0.0
 40
0.0
 40
0.0
 40
0.25
 40
0.25
 40
0.25
 40
0.25
 40
0.5
 40
0.5
 40
0.5
 40
0.5
 40
1.0
 40
1.0
 40
1.0
 40
1.0
 10
-6.57941
 20
-12.72135
 30
0.0
 10
-6.57941
 20
-12.72135
 30
0.0
 10
-6.24921
 20
-12.67055
 30
0.0
 10
-6.24921
 20
-12.67055
 30
0.0
 10
-6.24921
 20
-12.67055
 30
0.0
 10
-6.24921
 20
-12.67055
 30
0.0
 10
-6.24921
 20
-12.77215
 30
0.0
 10
-6.24921
 20
-12.77215
 30
0.0
 10
-6.24921
 20
-12.77215
 30
0.0
 10
-6.24921
 20
-12.77215
 30
0.0
 10
-6.57941
 20
-12.72135
 30
0.0
 10
-6.57941
 20
-12.72135
 30
0.0
  0
SPLINE
  5
86
330
1F
100
AcDbEntity
  8
Warstwa 1
370
    13
100
AcDbSpline
210
0.0
220
0.0
230
1.0
 70
    11
 71
     3
 72
    16
 73
    12
 74
     0
 42
0.0000000001
 43
0.0000000001
 40
0.0
 40
0.0
 40
0.0
 40
0.0
 40
0.25
 40
0.25
 40
0.25
 40
0.25
 40
0.5
 40
0.5
 40
0.5
 40
0.5
 40
1.0
 40
1.0
 40
1.0
 40
1.0
 10
8.47282
 20
4.38887
 30
0.0
 10
8.47282
 20
4.38887
 30
0.0
 10
8.80302
 20
4.43967
 30
0.0
 10
8.80302
 20
4.43967
 30
0.0
 10
8.80302
 20
4.43967
 30
0.0
 10
8.80302
 20
4.43967
 30
0.0
 10
8.80302
 20
4.33807
 30
0.0
 10
8.80302
 20
4.33807
 30
0.0
 10
8.80302
 20
4.33807
 30
0.0
 10
8.80302
 20
4.33807
 30
0.0
 10
8.47282
 20
4.38887
 30
0.0
 10
8.47282
 20
4.38887
 30
0.0
  0
SPLINE
  5
87
330
1F
100
AcDbEntity
  8
Warstwa 1
370
    13
100
AcDbSpline
210
0.0
220
0.0
230
1.0
 70
    11
 71
     3
 72
    16
 73
    12
 74
     0
 42
0.0000000001
 43
0.0000000001
 40
0.0
 40
0.0
 40
0.0
 40
0.0
 40
0.25
 40
0.25
 40
0.25
 40
0.25
 40
0.5
 40
0.5
 40
0.5
 40
0.5
 40
1.0
 40
1.0
 40
1.0
 40
1.0
 10
8.37281
 20
4.38887
 30
0.0
 10
8.37281
 20
4.38887
 30
0.0
 10
8.04261
 20
4.33807
 30
0.0
 10
8.04261
 20
4.33807
 30
0.0
 10
8.04261
 20
4.33807
 30
0.0
 10
8.04261
 20
4.33807
 30
0.0
 10
8.04261
 20
4.43967
 30
0.0
 10
8.04261
 20
4.43967
 30
0.0
 10
8.04261
 20
4.43967
 30
0.0
 10
8.04261
 20
4.43967
 30
0.0
 10
8.37281
 20
4.38887
 30
0.0
 10
8.37281
 20
4.38887
 30
0.0
  0
SPLINE
  5
88
330
1F
100
AcDbEntity
  8
Warstwa 1
370
    13
100
AcDbSpline
210
0.0
220
0.0
230
1.0
 70
    11
 71
     3
 72
    16
 73
    12
 74
     0
 42
0.0000000001
 43
0.0000000001
 40
0.0
 40
0.0
 40
0.0
 40
0.0
 40
0.25
 40
0.25
 40
0.25
 40
0.25
 40
0.5
 40
0.5
 40
0.5
 40
0.5
 40
1.0
 40
1.0
 40
1.0
 40
1.0
 10
-8.58174
 20
-12.22093
 30
0.0
 10
-8.58174
 20
-12.22093
 30
0.0
 10
-8.63254
 20
-11.89073
 30
0.0
 10
-8.63254
 20
-11.89073
 30
0.0
 10
-8.63254
 20
-11.89073
 30
0.0
 10
-8.63254
 20
-11.89073
 30
0.0
 10
-8.53094
 20
-11.89073
 30
0.0
 10
-8.53094
 20
-11.89073
 30
0.0
 10
-8.53094
 20
-11.89073
 30
0.0
 10
-8.53094
 20
-11.89073
 30
0.0
 10
-8.58174
 20
-12.22093
 30
0.0
 10
-8.58174
 20
-12.22093
 30
0.0
  0
SPLINE
  5
89
330
1F
100
AcDbEntity
  8
Warstwa 1
370
    13
100
AcDbSpline
210
0.0
220
0.0
230
1.0
 70
    11
 71
     3
 72
    16
 73
    12
 74
     0
 42
0.0000000001
 43
0.0000000001
 40
0.0
 40
0.0
 40
0.0
 40
0.0
 40
0.25
 40
0.25
 40
0.25
 40
0.25
 40
0.5
 40
0.5
 40
0.5
 40
0.5
 40
1.0
 40
1.0
 40
1.0
 40
1.0
 10
-8.58174
 20
-9.58844
 30
0.0
 10
-8.58174
 20
-9.58844
 30
0.0
 10
-8.53094
 20
-9.9186
 30
0.0
 10
-8.53094
 20
-9.9186
 30
0.0
 10
-8.53094
 20
-9.9186
 30
0.0
 10
-8.53094
 20
-9.9186
 30
0.0
 10
-8.63254
 20
-9.9186
 30
0.0
 10
-8.63254
 20
-9.9186
 30
0.0
 10
-8.63254
 20
-9.9186
 30
0.0
 10
-8.63254
 20
-9.9186
 30
0.0
 10
-8.58174
 20
-9.58844
 30
0.0
 10
-8.58174
 20
-9.58844
 30
0.0
  0
SPLINE
  5
8A
330
1F
100
AcDbEntity
  8
Warstwa 1
370
    13
100
AcDbSpline
210
0.0
220
0.0
230
1.0
 70
    11
 71
     3
 72
    16
 73
    12
 74
     0
 42
0.0000000001
 43
0.0000000001
 40
0.0
 40
0.0
 40
0.0
 40
0.0
 40
0.25
 40
0.25
 40
0.25
 40
0.25
 40
0.5
 40
0.5
 40
0.5
 40
0.5
 40
1.0
 40
1.0
 40
1.0
 40
1.0
 10
-8.06474
 20
-12.07093
 30
0.0
 10
-8.06474
 20
-12.07093
 30
0.0
 10
-8.11554
 20
-11.74073
 30
0.0
 10
-8.11554
 20
-11.74073
 30
0.0
 10
-8.11554
 20
-11.74073
 30
0.0
 10
-8.11554
 20
-11.74073
 30
0.0
 10
-8.01394
 20
-11.74073
 30
0.0
 10
-8.01394
 20
-11.74073
 30
0.0
 10
-8.01394
 20
-11.74073
 30
0.0
 10
-8.01394
 20
-11.74073
 30
0.0
 10
-8.06474
 20
-12.07093
 30
0.0
 10
-8.06474
 20
-12.07093
 30
0.0
  0
SPLINE
  5
8B
330
1F
100
AcDbEntity
  8
Warstwa 1
370
    13
100
AcDbSpline
210
0.0
220
0.0
230
1.0
 70
    11
 71
     3
 72
    16
 73
    12
 74
     0
 42
0.0000000001
 43
0.0000000001
 40
0.0
 40
0.0
 40
0.0
 40
0.0
 40
0.25
 40
0.25
 40
0.25
 40
0.25
 40
0.5
 40
0.5
 40
0.5
 40
0.5
 40
1.0
 40
1.0
 40
1.0
 40
1.0
 10
-8.06474
 20
-9.58844
 30
0.0
 10
-8.06474
 20
-9.58844
 30
0.0
 10
-8.01394
 20
-9.9186
 30
0.0
 10
-8.01394
 20
-9.9186
 30
0.0
 10
-8.01394
 20
-9.9186
 30
0.0
 10
-8.01394
 20
-9.9186
 30
0.0
 10
-8.11554
 20
-9.9186
 30
0.0
 10
-8.11554
 20
-9.9186
 30
0.0
 10
-8.11554
 20
-9.9186
 30
0.0
 10
-8.11554
 20
-9.9186
 30
0.0
 10
-8.06474
 20
-9.58844
 30
0.0
 10
-8.06474
 20
-9.58844
 30
0.0
  0
SPLINE
  5
8C
330
1F
100
AcDbEntity
  8
Warstwa 1
370
    13
100
AcDbSpline
210
0.0
220
0.0
230
1.0
 70
    11
 71
     3
 72
    16
 73
    12
 74
     0
 42
0.0000000001
 43
0.0000000001
 40
0.0
 40
0.0
 40
0.0
 40
0.0
 40
0.25
 40
0.25
 40
0.25
 40
0.25
 40
0.5
 40
0.5
 40
0.5
 40
0.5
 40
1.0
 40
1.0
 40
1.0
 40
1.0
 10
-8.64317
 20
4.8682
 30
0.0
 10
-8.64317
 20
4.8682
 30
0.0
 10
-8.69397
 20
5.1984
 30
0.0
 10
-8.69397
 20
5.1984
 30
0.0
 10
-8.69397
 20
5.1984
 30
0.0
 10
-8.69397
 20
5.1984
 30
0.0
 10
-8.59237
 20
5.1984
 30
0.0
 10
-8.59237
 20
5.1984
 30
0.0
 10
-8.59237
 20
5.1984
 30
0.0
 10
-8.59237
 20
5.1984
 30
0.0
 10
-8.64317
 20
4.8682
 30
0.0
 10
-8.64317
 20
4.8682
 30
0.0
  0
SPLINE
  5
8D
330
1F
100
AcDbEntity
  8
Warstwa 1
370
    13
100
AcDbSpline
210
0.0
220
0.0
230
1.0
 70
    11
 71
     3
 72
    16
 73
    12
 74
     0
 42
0.0000000001
 43
0.0000000001
 40
0.0
 40
0.0
 40
0.0
 40
0.0
 40
0.25
 40
0.25
 40
0.25
 40
0.25
 40
0.5
 40
0.5
 40
0.5
 40
0.5
 40
1.0
 40
1.0
 40
1.0
 40
1.0
 10
-8.64317
 20
10.53071
 30
0.0
 10
-8.64317
 20
10.53071
 30
0.0
 10
-8.59237
 20
10.20051
 30
0.0
 10
-8.59237
 20
10.20051
 30
0.0
 10
-8.59237
 20
10.20051
 30
0.0
 10
-8.59237
 20
10.20051
 30
0.0
 10
-8.69397
 20
10.20051
 30
0.0
 10
-8.69397
 20
10.20051
 30
0.0
 10
-8.69397
 20
10.20051
 30
0.0
 10
-8.69397
 20
10.20051
 30
0.0
 10
-8.64317
 20
10.53071
 30
0.0
 10
-8.64317
 20
10.53071
 30
0.0
  0
SPLINE
  5
8E
330
1F
100
AcDbEntity
  8
Warstwa 1
370
    13
100
AcDbSpline
210
0.0
220
0.0
230
1.0
 70
    11
 71
     3
 72
    16
 73
    12
 74
     0
 42
0.0000000001
 43
0.0000000001
 40
0.0
 40
0.0
 40
0.0
 40
0.0
 40
0.25
 40
0.25
 40
0.25
 40
0.25
 40
0.5
 40
0.5
 40
0.5
 40
0.5
 40
1.0
 40
1.0
 40
1.0
 40
1.0
 10
-8.65306
 20
3.38886
 30
0.0
 10
-8.65306
 20
3.38886
 30
0.0
 10
-8.60226
 20
3.05866
 30
0.0
 10
-8.60226
 20
3.05866
 30
0.0
 10
-8.60226
 20
3.05866
 30
0.0
 10
-8.60226
 20
3.05866
 30
0.0
 10
-8.70386
 20
3.05866
 30
0.0
 10
-8.70386
 20
3.05866
 30
0.0
 10
-8.70386
 20
3.05866
 30
0.0
 10
-8.70386
 20
3.05866
 30
0.0
 10
-8.65306
 20
3.38886
 30
0.0
 10
-8.65306
 20
3.38886
 30
0.0
  0
SPLINE
  5
8F
330
1F
100
AcDbEntity
  8
Warstwa 1
370
    13
100
AcDbSpline
210
0.0
220
0.0
230
1.0
 70
    11
 71
     3
 72
    16
 73
    12
 74
     0
 42
0.0000000001
 43
0.0000000001
 40
0.0
 40
0.0
 40
0.0
 40
0.0
 40
0.25
 40
0.25
 40
0.25
 40
0.25
 40
0.5
 40
0.5
 40
0.5
 40
0.5
 40
1.0
 40
1.0
 40
1.0
 40
1.0
 10
-8.65306
 20
-5.11111
 30
0.0
 10
-8.65306
 20
-5.11111
 30
0.0
 10
-8.70386
 20
-4.78094
 30
0.0
 10
-8.70386
 20
-4.78094
 30
0.0
 10
-8.70386
 20
-4.78094
 30
0.0
 10
-8.70386
 20
-4.78094
 30
0.0
 10
-8.60226
 20
-4.78094
 30
0.0
 10
-8.60226
 20
-4.78094
 30
0.0
 10
-8.60226
 20
-4.78094
 30
0.0
 10
-8.60226
 20
-4.78094
 30
0.0
 10
-8.65306
 20
-5.11111
 30
0.0
 10
-8.65306
 20
-5.11111
 30
0.0
  0
SPLINE
  5
90
330
1F
100
AcDbEntity
  8
Warstwa 1
370
    13
100
AcDbSpline
210
0.0
220
0.0
230
1.0
 70
    11
 71
     3
 72
    16
 73
    12
 74
     0
 42
0.0000000001
 43
0.0000000001
 40
0.0
 40
0.0
 40
0.0
 40
0.0
 40
0.25
 40
0.25
 40
0.25
 40
0.25
 40
0.5
 40
0.5
 40
0.5
 40
0.5
 40
1.0
 40
1.0
 40
1.0
 40
1.0
 10
-7.99213
 20
3.38886
 30
0.0
 10
-7.99213
 20
3.38886
 30
0.0
 10
-8.04293
 20
3.71906
 30
0.0
 10
-8.04293
 20
3.71906
 30
0.0
 10
-8.04293
 20
3.71906
 30
0.0
 10
-8.04293
 20
3.71906
 30
0.0
 10
-7.94133
 20
3.71906
 30
0.0
 10
-7.94133
 20
3.71906
 30
0.0
 10
-7.94133
 20
3.71906
 30
0.0
 10
-7.94133
 20
3.71906
 30
0.0
 10
-7.99213
 20
3.38886
 30
0.0
 10
-7.99213
 20
3.38886
 30
0.0
  0
SPLINE
  5
91
330
1F
100
AcDbEntity
  8
Warstwa 1
370
    13
100
AcDbSpline
210
0.0
220
0.0
230
1.0
 70
    11
 71
     3
 72
    16
 73
    12
 74
     0
 42
0.0000000001
 43
0.0000000001
 40
0.0
 40
0.0
 40
0.0
 40
0.0
 40
0.25
 40
0.25
 40
0.25
 40
0.25
 40
0.5
 40
0.5
 40
0.5
 40
0.5
 40
1.0
 40
1.0
 40
1.0
 40
1.0
 10
-7.99213
 20
2.97886
 30
0.0
 10
-7.99213
 20
2.97886
 30
0.0
 10
-7.94133
 20
2.64866
 30
0.0
 10
-7.94133
 20
2.64866
 30
0.0
 10
-7.94133
 20
2.64866
 30
0.0
 10
-7.94133
 20
2.64866
 30
0.0
 10
-8.04293
 20
2.64866
 30
0.0
 10
-8.04293
 20
2.64866
 30
0.0
 10
-8.04293
 20
2.64866
 30
0.0
 10
-8.04293
 20
2.64866
 30
0.0
 10
-7.99213
 20
2.97886
 30
0.0
 10
-7.99213
 20
2.97886
 30
0.0
  0
SPLINE
  5
92
330
1F
100
AcDbEntity
  8
Warstwa 1
370
    13
100
AcDbSpline
210
0.0
220
0.0
230
1.0
 70
    11
 71
     3
 72
    16
 73
    12
 74
     0
 42
0.0000000001
 43
0.0000000001
 40
0.0
 40
0.0
 40
0.0
 40
0.0
 40
0.25
 40
0.25
 40
0.25
 40
0.25
 40
0.5
 40
0.5
 40
0.5
 40
0.5
 40
1.0
 40
1.0
 40
1.0
 40
1.0
 10
0.25762
 20
7.39571
 30
0.0
 10
0.25762
 20
7.39571
 30
0.0
 10
0.30842
 20
7.06551
 30
0.0
 10
0.30842
 20
7.06551
 30
0.0
 10
0.30842
 20
7.06551
 30
0.0
 10
0.30842
 20
7.06551
 30
0.0
 10
0.20682
 20
7.06551
 30
0.0
 10
0.20682
 20
7.06551
 30
0.0
 10
0.20682
 20
7.06551
 30
0.0
 10
0.20682
 20
7.06551
 30
0.0
 10
0.25762
 20
7.39571
 30
0.0
 10
0.25762
 20
7.39571
 30
0.0
  0
SPLINE
  5
93
330
1F
100
AcDbEntity
  8
Warstwa 1
370
    13
100
AcDbSpline
210
0.0
220
0.0
230
1.0
 70
    11
 71
     3
 72
    16
 73
    12
 74
     0
 42
0.0000000001
 43
0.0000000001
 40
0.0
 40
0.0
 40
0.0
 40
0.0
 40
0.25
 40
0.25
 40
0.25
 40
0.25
 40
0.5
 40
0.5
 40
0.5
 40
0.5
 40
1.0
 40
1.0
 40
1.0
 40
1.0
 10
0.25762
 20
5.5957
 30
0.0
 10
0.25762
 20
5.5957
 30
0.0
 10
0.20682
 20
5.9259
 30
0.0
 10
0.20682
 20
5.9259
 30
0.0
 10
0.20682
 20
5.9259
 30
0.0
 10
0.20682
 20
5.9259
 30
0.0
 10
0.30842
 20
5.9259
 30
0.0
 10
0.30842
 20
5.9259
 30
0.0
 10
0.30842
 20
5.9259
 30
0.0
 10
0.30842
 20
5.9259
 30
0.0
 10
0.25762
 20
5.5957
 30
0.0
 10
0.25762
 20
5.5957
 30
0.0
  0
SPLINE
  5
94
330
1F
100
AcDbEntity
  8
Warstwa 1
370
    13
100
AcDbSpline
210
0.0
220
0.0
230
1.0
 70
    11
 71
     3
 72
    16
 73
    12
 74
     0
 42
0.0000000001
 43
0.0000000001
 40
0.0
 40
0.0
 40
0.0
 40
0.0
 40
0.25
 40
0.25
 40
0.25
 40
0.25
 40
0.5
 40
0.5
 40
0.5
 40
0.5
 40
1.0
 40
1.0
 40
1.0
 40
1.0
 10
0.67188
 20
7.49569
 30
0.0
 10
0.67188
 20
7.49569
 30
0.0
 10
0.72272
 20
7.16549
 30
0.0
 10
0.72272
 20
7.16549
 30
0.0
 10
0.72272
 20
7.16549
 30
0.0
 10
0.72272
 20
7.16549
 30
0.0
 10
0.62112
 20
7.16549
 30
0.0
 10
0.62112
 20
7.16549
 30
0.0
 10
0.62112
 20
7.16549
 30
0.0
 10
0.62112
 20
7.16549
 30
0.0
 10
0.67188
 20
7.49569
 30
0.0
 10
0.67188
 20
7.49569
 30
0.0
  0
SPLINE
  5
95
330
1F
100
AcDbEntity
  8
Warstwa 1
370
    13
100
AcDbSpline
210
0.0
220
0.0
230
1.0
 70
    11
 71
     3
 72
    16
 73
    12
 74
     0
 42
0.0000000001
 43
0.0000000001
 40
0.0
 40
0.0
 40
0.0
 40
0.0
 40
0.25
 40
0.25
 40
0.25
 40
0.25
 40
0.5
 40
0.5
 40
0.5
 40
0.5
 40
1.0
 40
1.0
 40
1.0
 40
1.0
 10
0.67188
 20
5.49569
 30
0.0
 10
0.67188
 20
5.49569
 30
0.0
 10
0.62112
 20
5.82589
 30
0.0
 10
0.62112
 20
5.82589
 30
0.0
 10
0.62112
 20
5.82589
 30
0.0
 10
0.62112
 20
5.82589
 30
0.0
 10
0.72272
 20
5.82589
 30
0.0
 10
0.72272
 20
5.82589
 30
0.0
 10
0.72272
 20
5.82589
 30
0.0
 10
0.72272
 20
5.82589
 30
0.0
 10
0.67188
 20
5.49569
 30
0.0
 10
0.67188
 20
5.49569
 30
0.0
  0
SPLINE
  5
96
330
1F
100
AcDbEntity
  8
Warstwa 1
370
    13
100
AcDbSpline
210
0.0
220
0.0
230
1.0
 70
    11
 71
     3
 72
    16
 73
    12
 74
     0
 42
0.0000000001
 43
0.0000000001
 40
0.0
 40
0.0
 40
0.0
 40
0.0
 40
0.25
 40
0.25
 40
0.25
 40
0.25
 40
0.5
 40
0.5
 40
0.5
 40
0.5
 40
1.0
 40
1.0
 40
1.0
 40
1.0
 10
-7.97876
 20
9.30071
 30
0.0
 10
-7.97876
 20
9.30071
 30
0.0
 10
-7.92796
 20
8.97051
 30
0.0
 10
-7.92796
 20
8.97051
 30
0.0
 10
-7.92796
 20
8.97051
 30
0.0
 10
-7.92796
 20
8.97051
 30
0.0
 10
-8.02956
 20
8.97051
 30
0.0
 10
-8.02956
 20
8.97051
 30
0.0
 10
-8.02956
 20
8.97051
 30
0.0
 10
-8.02956
 20
8.97051
 30
0.0
 10
-7.97876
 20
9.30071
 30
0.0
 10
-7.97876
 20
9.30071
 30
0.0
  0
SPLINE
  5
97
330
1F
100
AcDbEntity
  8
Warstwa 1
370
    13
100
AcDbSpline
210
0.0
220
0.0
230
1.0
 70
    11
 71
     3
 72
    16
 73
    12
 74
     0
 42
0.0000000001
 43
0.0000000001
 40
0.0
 40
0.0
 40
0.0
 40
0.0
 40
0.25
 40
0.25
 40
0.25
 40
0.25
 40
0.5
 40
0.5
 40
0.5
 40
0.5
 40
1.0
 40
1.0
 40
1.0
 40
1.0
 10
-7.97876
 20
6.49571
 30
0.0
 10
-7.97876
 20
6.49571
 30
0.0
 10
-8.02956
 20
6.82591
 30
0.0
 10
-8.02956
 20
6.82591
 30
0.0
 10
-8.02956
 20
6.82591
 30
0.0
 10
-8.02956
 20
6.82591
 30
0.0
 10
-7.92796
 20
6.82591
 30
0.0
 10
-7.92796
 20
6.82591
 30
0.0
 10
-7.92796
 20
6.82591
 30
0.0
 10
-7.92796
 20
6.82591
 30
0.0
 10
-7.97876
 20
6.49571
 30
0.0
 10
-7.97876
 20
6.49571
 30
0.0
  0
SPLINE
  5
98
330
1F
100
AcDbEntity
  8
Warstwa 1
370
    13
100
AcDbSpline
210
0.0
220
0.0
230
1.0
 70
    11
 71
     3
 72
    16
 73
    12
 74
     0
 42
0.0000000001
 43
0.0000000001
 40
0.0
 40
0.0
 40
0.0
 40
0.0
 40
0.25
 40
0.25
 40
0.25
 40
0.25
 40
0.5
 40
0.5
 40
0.5
 40
0.5
 40
1.0
 40
1.0
 40
1.0
 40
1.0
 10
3.40242
 20
-5.11111
 30
0.0
 10
3.40242
 20
-5.11111
 30
0.0
 10
3.45322
 20
-5.44134
 30
0.0
 10
3.45322
 20
-5.44134
 30
0.0
 10
3.45322
 20
-5.44134
 30
0.0
 10
3.45322
 20
-5.44134
 30
0.0
 10
3.35162
 20
-5.44134
 30
0.0
 10
3.35162
 20
-5.44134
 30
0.0
 10
3.35162
 20
-5.44134
 30
0.0
 10
3.35162
 20
-5.44134
 30
0.0
 10
3.40242
 20
-5.11111
 30
0.0
 10
3.40242
 20
-5.11111
 30
0.0
  0
SPLINE
  5
99
330
1F
100
AcDbEntity
  8
Warstwa 1
370
    13
100
AcDbSpline
210
0.0
220
0.0
230
1.0
 70
    11
 71
     3
 72
    16
 73
    12
 74
     0
 42
0.0000000001
 43
0.0000000001
 40
0.0
 40
0.0
 40
0.0
 40
0.0
 40
0.25
 40
0.25
 40
0.25
 40
0.25
 40
0.5
 40
0.5
 40
0.5
 40
0.5
 40
1.0
 40
1.0
 40
1.0
 40
1.0
 10
3.40242
 20
-7.46114
 30
0.0
 10
3.40242
 20
-7.46114
 30
0.0
 10
3.35162
 20
-7.13094
 30
0.0
 10
3.35162
 20
-7.13094
 30
0.0
 10
3.35162
 20
-7.13094
 30
0.0
 10
3.35162
 20
-7.13094
 30
0.0
 10
3.45322
 20
-7.13094
 30
0.0
 10
3.45322
 20
-7.13094
 30
0.0
 10
3.45322
 20
-7.13094
 30
0.0
 10
3.45322
 20
-7.13094
 30
0.0
 10
3.40242
 20
-7.46114
 30
0.0
 10
3.40242
 20
-7.46114
 30
0.0
  0
SPLINE
  5
9A
330
1F
100
AcDbEntity
  8
Warstwa 1
370
    13
100
AcDbSpline
210
0.0
220
0.0
230
1.0
 70
    11
 71
     3
 72
    16
 73
    12
 74
     0
 42
0.0000000001
 43
0.0000000001
 40
0.0
 40
0.0
 40
0.0
 40
0.0
 40
0.25
 40
0.25
 40
0.25
 40
0.25
 40
0.5
 40
0.5
 40
0.5
 40
0.5
 40
1.0
 40
1.0
 40
1.0
 40
1.0
 10
-7.97873
 20
10.53072
 30
0.0
 10
-7.97873
 20
10.53072
 30
0.0
 10
-7.92793
 20
10.20052
 30
0.0
 10
-7.92793
 20
10.20052
 30
0.0
 10
-7.92793
 20
10.20052
 30
0.0
 10
-7.92793
 20
10.20052
 30
0.0
 10
-8.02953
 20
10.20052
 30
0.0
 10
-8.02953
 20
10.20052
 30
0.0
 10
-8.02953
 20
10.20052
 30
0.0
 10
-8.02953
 20
10.20052
 30
0.0
 10
-7.97873
 20
10.53072
 30
0.0
 10
-7.97873
 20
10.53072
 30
0.0
  0
SPLINE
  5
9B
330
1F
100
AcDbEntity
  8
Warstwa 1
370
    13
100
AcDbSpline
210
0.0
220
0.0
230
1.0
 70
    11
 71
     3
 72
    16
 73
    12
 74
     0
 42
0.0000000001
 43
0.0000000001
 40
0.0
 40
0.0
 40
0.0
 40
0.0
 40
0.25
 40
0.25
 40
0.25
 40
0.25
 40
0.5
 40
0.5
 40
0.5
 40
0.5
 40
1.0
 40
1.0
 40
1.0
 40
1.0
 10
-7.97873
 20
9.30072
 30
0.0
 10
-7.97873
 20
9.30072
 30
0.0
 10
-8.02953
 20
9.63092
 30
0.0
 10
-8.02953
 20
9.63092
 30
0.0
 10
-8.02953
 20
9.63092
 30
0.0
 10
-8.02953
 20
9.63092
 30
0.0
 10
-7.92793
 20
9.63092
 30
0.0
 10
-7.92793
 20
9.63092
 30
0.0
 10
-7.92793
 20
9.63092
 30
0.0
 10
-7.92793
 20
9.63092
 30
0.0
 10
-7.97873
 20
9.30072
 30
0.0
 10
-7.97873
 20
9.30072
 30
0.0
  0
SPLINE
  5
9C
330
1F
100
AcDbEntity
  8
Warstwa 1
370
    13
100
AcDbSpline
210
0.0
220
0.0
230
1.0
 70
    24
 71
     3
 72
     8
 73
     4
 74
     0
 42
0.0000000001
 43
0.0000000001
 40
0.0
 40
0.0
 40
0.0
 40
0.0
 40
1.0
 40
1.0
 40
1.0
 40
1.0
 10
-0.36691
 20
-12.15592
 30
0.0
 10
-0.36691
 20
-12.15592
 30
0.0
 10
-0.36691
 20
-13.08775
 30
0.0
 10
-0.36691
 20
-13.08775
 30
0.0
  0
SPLINE
  5
9D
330
1F
100
AcDbEntity
  8
Warstwa 1
370
    13
100
AcDbSpline
210
0.0
220
0.0
230
1.0
 70
    24
 71
     3
 72
     8
 73
     4
 74
     0
 42
0.0000000001
 43
0.0000000001
 40
0.0
 40
0.0
 40
0.0
 40
0.0
 40
1.0
 40
1.0
 40
1.0
 40
1.0
 10
-1.37942
 20
-9.68842
 30
0.0
 10
-1.37942
 20
-9.68842
 30
0.0
 10
-1.37942
 20
-13.08775
 30
0.0
 10
-1.37942
 20
-13.08775
 30
0.0
  0
SPLINE
  5
9E
330
1F
100
AcDbEntity
  8
Warstwa 1
370
    13
100
AcDbSpline
210
0.0
220
0.0
230
1.0
 70
    24
 71
     3
 72
     8
 73
     4
 74
     0
 42
0.0000000001
 43
0.0000000001
 40
0.0
 40
0.0
 40
0.0
 40
0.0
 40
1.0
 40
1.0
 40
1.0
 40
1.0
 10
-0.36691
 20
-12.98774
 30
0.0
 10
-0.36691
 20
-12.98774
 30
0.0
 10
0.26809
 20
-12.98774
 30
0.0
 10
0.26809
 20
-12.98774
 30
0.0
  0
SPLINE
  5
9F
330
1F
100
AcDbEntity
  8
Warstwa 1
370
    13
100
AcDbSpline
210
0.0
220
0.0
230
1.0
 70
    24
 71
     3
 72
     8
 73
     4
 74
     0
 42
0.0000000001
 43
0.0000000001
 40
0.0
 40
0.0
 40
0.0
 40
0.0
 40
1.0
 40
1.0
 40
1.0
 40
1.0
 10
-0.36691
 20
-12.98774
 30
0.0
 10
-0.36691
 20
-12.98774
 30
0.0
 10
-1.37942
 20
-12.98774
 30
0.0
 10
-1.37942
 20
-12.98774
 30
0.0
  0
SPLINE
  5
A0
330
1F
100
AcDbEntity
  8
Warstwa 1
370
    13
100
AcDbSpline
210
0.0
220
0.0
230
1.0
 70
    24
 71
     3
 72
     8
 73
     4
 74
     0
 42
0.0000000001
 43
0.0000000001
 40
0.0
 40
0.0
 40
0.0
 40
0.0
 40
1.0
 40
1.0
 40
1.0
 40
1.0
 10
-1.37942
 20
-12.98774
 30
0.0
 10
-1.37942
 20
-12.98774
 30
0.0
 10
-2.01442
 20
-12.98774
 30
0.0
 10
-2.01442
 20
-12.98774
 30
0.0
  0
SPLINE
  5
A1
330
1F
100
AcDbEntity
  8
Warstwa 1
370
    13
100
AcDbSpline
210
0.0
220
0.0
230
1.0
 70
    24
 71
     3
 72
     8
 73
     4
 74
     0
 42
0.0000000001
 43
0.0000000001
 40
0.0
 40
0.0
 40
0.0
 40
0.0
 40
1.0
 40
1.0
 40
1.0
 40
1.0
 10
-7.59192
 20
10.46571
 30
0.0
 10
-7.59192
 20
10.46571
 30
0.0
 10
-7.59192
 20
11.63122
 30
0.0
 10
-7.59192
 20
11.63122
 30
0.0
  0
SPLINE
  5
A2
330
1F
100
AcDbEntity
  8
Warstwa 1
370
    13
100
AcDbSpline
210
0.0
220
0.0
230
1.0
 70
    24
 71
     3
 72
     8
 73
     4
 74
     0
 42
0.0000000001
 43
0.0000000001
 40
0.0
 40
0.0
 40
0.0
 40
0.0
 40
1.0
 40
1.0
 40
1.0
 40
1.0
 10
-0.36692
 20
10.46571
 30
0.0
 10
-0.36692
 20
10.46571
 30
0.0
 10
-0.36692
 20
11.63122
 30
0.0
 10
-0.36692
 20
11.63122
 30
0.0
  0
SPLINE
  5
A3
330
1F
100
AcDbEntity
  8
Warstwa 1
370
    13
100
AcDbSpline
210
0.0
220
0.0
230
1.0
 70
    24
 71
     3
 72
     8
 73
     4
 74
     0
 42
0.0000000001
 43
0.0000000001
 40
0.0
 40
0.0
 40
0.0
 40
0.0
 40
1.0
 40
1.0
 40
1.0
 40
1.0
 10
-7.59192
 20
11.53121
 30
0.0
 10
-7.59192
 20
11.53121
 30
0.0
 10
-0.36692
 20
11.53121
 30
0.0
 10
-0.36692
 20
11.53121
 30
0.0
  0
SPLINE
  5
A4
330
1F
100
AcDbEntity
  8
Warstwa 1
370
    13
100
AcDbSpline
210
0.0
220
0.0
230
1.0
 70
    24
 71
     3
 72
     8
 73
     4
 74
     0
 42
0.0000000001
 43
0.0000000001
 40
0.0
 40
0.0
 40
0.0
 40
0.0
 40
1.0
 40
1.0
 40
1.0
 40
1.0
 10
-6.42941
 20
9.40071
 30
0.0
 10
-6.42941
 20
9.40071
 30
0.0
 10
-6.42941
 20
11.17843
 30
0.0
 10
-6.42941
 20
11.17843
 30
0.0
  0
SPLINE
  5
A5
330
1F
100
AcDbEntity
  8
Warstwa 1
370
    13
100
AcDbSpline
210
0.0
220
0.0
230
1.0
 70
    24
 71
     3
 72
     8
 73
     4
 74
     0
 42
0.0000000001
 43
0.0000000001
 40
0.0
 40
0.0
 40
0.0
 40
0.0
 40
1.0
 40
1.0
 40
1.0
 40
1.0
 10
-1.52943
 20
9.39129
 30
0.0
 10
-1.52943
 20
9.39129
 30
0.0
 10
-1.52943
 20
11.17843
 30
0.0
 10
-1.52943
 20
11.17843
 30
0.0
  0
SPLINE
  5
A6
330
1F
100
AcDbEntity
  8
Warstwa 1
370
    13
100
AcDbSpline
210
0.0
220
0.0
230
1.0
 70
    24
 71
     3
 72
     8
 73
     4
 74
     0
 42
0.0000000001
 43
0.0000000001
 40
0.0
 40
0.0
 40
0.0
 40
0.0
 40
1.0
 40
1.0
 40
1.0
 40
1.0
 10
-6.42941
 20
11.07842
 30
0.0
 10
-6.42941
 20
11.07842
 30
0.0
 10
-1.52943
 20
11.07842
 30
0.0
 10
-1.52943
 20
11.07842
 30
0.0
  0
SPLINE
  5
A7
330
1F
100
AcDbEntity
  8
Warstwa 1
370
    13
100
AcDbSpline
210
0.0
220
0.0
230
1.0
 70
    24
 71
     3
 72
     8
 73
     4
 74
     0
 42
0.0000000001
 43
0.0000000001
 40
0.0
 40
0.0
 40
0.0
 40
0.0
 40
1.0
 40
1.0
 40
1.0
 40
1.0
 10
-7.5844
 20
-12.15592
 30
0.0
 10
-7.5844
 20
-12.15592
 30
0.0
 10
-7.5844
 20
-12.82129
 30
0.0
 10
-7.5844
 20
-12.82129
 30
0.0
  0
SPLINE
  5
A8
330
1F
100
AcDbEntity
  8
Warstwa 1
370
    13
100
AcDbSpline
210
0.0
220
0.0
230
1.0
 70
    24
 71
     3
 72
     8
 73
     4
 74
     0
 42
0.0000000001
 43
0.0000000001
 40
0.0
 40
0.0
 40
0.0
 40
0.0
 40
1.0
 40
1.0
 40
1.0
 40
1.0
 10
-6.57941
 20
-9.68841
 30
0.0
 10
-6.57941
 20
-9.68841
 30
0.0
 10
-6.57941
 20
-12.82129
 30
0.0
 10
-6.57941
 20
-12.82129
 30
0.0
  0
SPLINE
  5
A9
330
1F
100
AcDbEntity
  8
Warstwa 1
370
    13
100
AcDbSpline
210
0.0
220
0.0
230
1.0
 70
    24
 71
     3
 72
     8
 73
     4
 74
     0
 42
0.0000000001
 43
0.0000000001
 40
0.0
 40
0.0
 40
0.0
 40
0.0
 40
1.0
 40
1.0
 40
1.0
 40
1.0
 10
-7.5844
 20
-12.72135
 30
0.0
 10
-7.5844
 20
-12.72135
 30
0.0
 10
-8.2194
 20
-12.72135
 30
0.0
 10
-8.2194
 20
-12.72135
 30
0.0
  0
SPLINE
  5
AA
330
1F
100
AcDbEntity
  8
Warstwa 1
370
    13
100
AcDbSpline
210
0.0
220
0.0
230
1.0
 70
    24
 71
     3
 72
     8
 73
     4
 74
     0
 42
0.0000000001
 43
0.0000000001
 40
0.0
 40
0.0
 40
0.0
 40
0.0
 40
1.0
 40
1.0
 40
1.0
 40
1.0
 10
-7.5844
 20
-12.72135
 30
0.0
 10
-7.5844
 20
-12.72135
 30
0.0
 10
-6.57941
 20
-12.72135
 30
0.0
 10
-6.57941
 20
-12.72135
 30
0.0
  0
SPLINE
  5
AB
330
1F
100
AcDbEntity
  8
Warstwa 1
370
    13
100
AcDbSpline
210
0.0
220
0.0
230
1.0
 70
    24
 71
     3
 72
     8
 73
     4
 74
     0
 42
0.0000000001
 43
0.0000000001
 40
0.0
 40
0.0
 40
0.0
 40
0.0
 40
1.0
 40
1.0
 40
1.0
 40
1.0
 10
-6.57941
 20
-12.72135
 30
0.0
 10
-6.57941
 20
-12.72135
 30
0.0
 10
-5.94441
 20
-12.72135
 30
0.0
 10
-5.94441
 20
-12.72135
 30
0.0
  0
SPLINE
  5
AC
330
1F
100
AcDbEntity
  8
Warstwa 1
370
    13
100
AcDbSpline
210
0.0
220
0.0
230
1.0
 70
    24
 71
     3
 72
     8
 73
     4
 74
     0
 42
0.0000000001
 43
0.0000000001
 40
0.0
 40
0.0
 40
0.0
 40
0.0
 40
1.0
 40
1.0
 40
1.0
 40
1.0
 10
8.37281
 20
2.72387
 30
0.0
 10
8.37281
 20
2.72387
 30
0.0
 10
8.37281
 20
4.48885
 30
0.0
 10
8.37281
 20
4.48885
 30
0.0
  0
SPLINE
  5
AD
330
1F
100
AcDbEntity
  8
Warstwa 1
370
    13
100
AcDbSpline
210
0.0
220
0.0
230
1.0
 70
    24
 71
     3
 72
     8
 73
     4
 74
     0
 42
0.0000000001
 43
0.0000000001
 40
0.0
 40
0.0
 40
0.0
 40
0.0
 40
1.0
 40
1.0
 40
1.0
 40
1.0
 10
8.47282
 20
4.38888
 30
0.0
 10
8.47282
 20
4.38888
 30
0.0
 10
9.10782
 20
4.38888
 30
0.0
 10
9.10782
 20
4.38888
 30
0.0
  0
SPLINE
  5
AE
330
1F
100
AcDbEntity
  8
Warstwa 1
370
    13
100
AcDbSpline
210
0.0
220
0.0
230
1.0
 70
    24
 71
     3
 72
     8
 73
     4
 74
     0
 42
0.0000000001
 43
0.0000000001
 40
0.0
 40
0.0
 40
0.0
 40
0.0
 40
1.0
 40
1.0
 40
1.0
 40
1.0
 10
8.47282
 20
4.38888
 30
0.0
 10
8.47282
 20
4.38888
 30
0.0
 10
8.37281
 20
4.38888
 30
0.0
 10
8.37281
 20
4.38888
 30
0.0
  0
SPLINE
  5
AF
330
1F
100
AcDbEntity
  8
Warstwa 1
370
    13
100
AcDbSpline
210
0.0
220
0.0
230
1.0
 70
    24
 71
     3
 72
     8
 73
     4
 74
     0
 42
0.0000000001
 43
0.0000000001
 40
0.0
 40
0.0
 40
0.0
 40
0.0
 40
1.0
 40
1.0
 40
1.0
 40
1.0
 10
8.37281
 20
4.38888
 30
0.0
 10
8.37281
 20
4.38888
 30
0.0
 10
6.01234
 20
4.38888
 30
0.0
 10
6.01234
 20
4.38888
 30
0.0
  0
SPLINE
  5
B0
330
1F
100
AcDbEntity
  8
Warstwa 1
370
    13
100
AcDbSpline
210
0.0
220
0.0
230
1.0
 70
    24
 71
     3
 72
     8
 73
     4
 74
     0
 42
0.0000000001
 43
0.0000000001
 40
0.0
 40
0.0
 40
0.0
 40
0.0
 40
1.0
 40
1.0
 40
1.0
 40
1.0
 10
-7.4244
 20
-12.22093
 30
0.0
 10
-7.4244
 20
-12.22093
 30
0.0
 10
-8.68173
 20
-12.22093
 30
0.0
 10
-8.68173
 20
-12.22093
 30
0.0
  0
SPLINE
  5
B1
330
1F
100
AcDbEntity
  8
Warstwa 1
370
    13
100
AcDbSpline
210
0.0
220
0.0
230
1.0
 70
    24
 71
     3
 72
     8
 73
     4
 74
     0
 42
0.0000000001
 43
0.0000000001
 40
0.0
 40
0.0
 40
0.0
 40
0.0
 40
1.0
 40
1.0
 40
1.0
 40
1.0
 10
-6.6794
 20
-9.58844
 30
0.0
 10
-6.6794
 20
-9.58844
 30
0.0
 10
-8.68173
 20
-9.58844
 30
0.0
 10
-8.68173
 20
-9.58844
 30
0.0
  0
SPLINE
  5
B2
330
1F
100
AcDbEntity
  8
Warstwa 1
370
    13
100
AcDbSpline
210
0.0
220
0.0
230
1.0
 70
    24
 71
     3
 72
     8
 73
     4
 74
     0
 42
0.0000000001
 43
0.0000000001
 40
0.0
 40
0.0
 40
0.0
 40
0.0
 40
1.0
 40
1.0
 40
1.0
 40
1.0
 10
-8.58172
 20
-12.22093
 30
0.0
 10
-8.58172
 20
-12.22093
 30
0.0
 10
-8.58172
 20
-9.58844
 30
0.0
 10
-8.58172
 20
-9.58844
 30
0.0
  0
SPLINE
  5
B3
330
1F
100
AcDbEntity
  8
Warstwa 1
370
    13
100
AcDbSpline
210
0.0
220
0.0
230
1.0
 70
    24
 71
     3
 72
     8
 73
     4
 74
     0
 42
0.0000000001
 43
0.0000000001
 40
0.0
 40
0.0
 40
0.0
 40
0.0
 40
1.0
 40
1.0
 40
1.0
 40
1.0
 10
-7.67691
 20
-12.07093
 30
0.0
 10
-7.67691
 20
-12.07093
 30
0.0
 10
-8.16473
 20
-12.07093
 30
0.0
 10
-8.16473
 20
-12.07093
 30
0.0
  0
SPLINE
  5
B4
330
1F
100
AcDbEntity
  8
Warstwa 1
370
    13
100
AcDbSpline
210
0.0
220
0.0
230
1.0
 70
    24
 71
     3
 72
     8
 73
     4
 74
     0
 42
0.0000000001
 43
0.0000000001
 40
0.0
 40
0.0
 40
0.0
 40
0.0
 40
1.0
 40
1.0
 40
1.0
 40
1.0
 10
-6.67939
 20
-9.58844
 30
0.0
 10
-6.67939
 20
-9.58844
 30
0.0
 10
-8.16473
 20
-9.58844
 30
0.0
 10
-8.16473
 20
-9.58844
 30
0.0
  0
SPLINE
  5
B5
330
1F
100
AcDbEntity
  8
Warstwa 1
370
    13
100
AcDbSpline
210
0.0
220
0.0
230
1.0
 70
    24
 71
     3
 72
     8
 73
     4
 74
     0
 42
0.0000000001
 43
0.0000000001
 40
0.0
 40
0.0
 40
0.0
 40
0.0
 40
1.0
 40
1.0
 40
1.0
 40
1.0
 10
-8.06475
 20
-12.07093
 30
0.0
 10
-8.06475
 20
-12.07093
 30
0.0
 10
-8.06475
 20
-9.58844
 30
0.0
 10
-8.06475
 20
-9.58844
 30
0.0
  0
SPLINE
  5
B6
330
1F
100
AcDbEntity
  8
Warstwa 1
370
    13
100
AcDbSpline
210
0.0
220
0.0
230
1.0
 70
    24
 71
     3
 72
     8
 73
     4
 74
     0
 42
0.0000000001
 43
0.0000000001
 40
0.0
 40
0.0
 40
0.0
 40
0.0
 40
1.0
 40
1.0
 40
1.0
 40
1.0
 10
-6.26474
 20
4.8682
 30
0.0
 10
-6.26474
 20
4.8682
 30
0.0
 10
-8.74315
 20
4.8682
 30
0.0
 10
-8.74315
 20
4.8682
 30
0.0
  0
SPLINE
  5
B7
330
1F
100
AcDbEntity
  8
Warstwa 1
370
    13
100
AcDbSpline
210
0.0
220
0.0
230
1.0
 70
    24
 71
     3
 72
     8
 73
     4
 74
     0
 42
0.0000000001
 43
0.0000000001
 40
0.0
 40
0.0
 40
0.0
 40
0.0
 40
1.0
 40
1.0
 40
1.0
 40
1.0
 10
-7.34439
 20
10.53071
 30
0.0
 10
-7.34439
 20
10.53071
 30
0.0
 10
-8.74315
 20
10.53071
 30
0.0
 10
-8.74315
 20
10.53071
 30
0.0
  0
SPLINE
  5
B8
330
1F
100
AcDbEntity
  8
Warstwa 1
370
    13
100
AcDbSpline
210
0.0
220
0.0
230
1.0
 70
    24
 71
     3
 72
     8
 73
     4
 74
     0
 42
0.0000000001
 43
0.0000000001
 40
0.0
 40
0.0
 40
0.0
 40
0.0
 40
1.0
 40
1.0
 40
1.0
 40
1.0
 10
-8.64317
 20
4.8682
 30
0.0
 10
-8.64317
 20
4.8682
 30
0.0
 10
-8.64317
 20
10.53071
 30
0.0
 10
-8.64317
 20
10.53071
 30
0.0
  0
SPLINE
  5
B9
330
1F
100
AcDbEntity
  8
Warstwa 1
370
    13
100
AcDbSpline
210
0.0
220
0.0
230
1.0
 70
    24
 71
     3
 72
     8
 73
     4
 74
     0
 42
0.0000000001
 43
0.0000000001
 40
0.0
 40
0.0
 40
0.0
 40
0.0
 40
1.0
 40
1.0
 40
1.0
 40
1.0
 10
-7.51209
 20
3.38886
 30
0.0
 10
-7.51209
 20
3.38886
 30
0.0
 10
-8.75306
 20
3.38886
 30
0.0
 10
-8.75306
 20
3.38886
 30
0.0
  0
SPLINE
  5
BA
330
1F
100
AcDbEntity
  8
Warstwa 1
370
    13
100
AcDbSpline
210
0.0
220
0.0
230
1.0
 70
    24
 71
     3
 72
     8
 73
     4
 74
     0
 42
0.0000000001
 43
0.0000000001
 40
0.0
 40
0.0
 40
0.0
 40
0.0
 40
1.0
 40
1.0
 40
1.0
 40
1.0
 10
-7.66442
 20
-5.11111
 30
0.0
 10
-7.66442
 20
-5.11111
 30
0.0
 10
-8.75306
 20
-5.11111
 30
0.0
 10
-8.75306
 20
-5.11111
 30
0.0
  0
SPLINE
  5
BB
330
1F
100
AcDbEntity
  8
Warstwa 1
370
    13
100
AcDbSpline
210
0.0
220
0.0
230
1.0
 70
    24
 71
     3
 72
     8
 73
     4
 74
     0
 42
0.0000000001
 43
0.0000000001
 40
0.0
 40
0.0
 40
0.0
 40
0.0
 40
1.0
 40
1.0
 40
1.0
 40
1.0
 10
-8.65305
 20
3.38886
 30
0.0
 10
-8.65305
 20
3.38886
 30
0.0
 10
-8.65305
 20
-5.11111
 30
0.0
 10
-8.65305
 20
-5.11111
 30
0.0
  0
SPLINE
  5
BC
330
1F
100
AcDbEntity
  8
Warstwa 1
370
    13
100
AcDbSpline
210
0.0
220
0.0
230
1.0
 70
    24
 71
     3
 72
     8
 73
     4
 74
     0
 42
0.0000000001
 43
0.0000000001
 40
0.0
 40
0.0
 40
0.0
 40
0.0
 40
1.0
 40
1.0
 40
1.0
 40
1.0
 10
-7.51209
 20
3.38886
 30
0.0
 10
-7.51209
 20
3.38886
 30
0.0
 10
-8.09213
 20
3.38886
 30
0.0
 10
-8.09213
 20
3.38886
 30
0.0
  0
SPLINE
  5
BD
330
1F
100
AcDbEntity
  8
Warstwa 1
370
    13
100
AcDbSpline
210
0.0
220
0.0
230
1.0
 70
    24
 71
     3
 72
     8
 73
     4
 74
     0
 42
0.0000000001
 43
0.0000000001
 40
0.0
 40
0.0
 40
0.0
 40
0.0
 40
1.0
 40
1.0
 40
1.0
 40
1.0
 10
-0.4819
 20
2.97886
 30
0.0
 10
-0.4819
 20
2.97886
 30
0.0
 10
-8.09213
 20
2.97886
 30
0.0
 10
-8.09213
 20
2.97886
 30
0.0
  0
SPLINE
  5
BE
330
1F
100
AcDbEntity
  8
Warstwa 1
370
    13
100
AcDbSpline
210
0.0
220
0.0
230
1.0
 70
    24
 71
     3
 72
     8
 73
     4
 74
     0
 42
0.0000000001
 43
0.0000000001
 40
0.0
 40
0.0
 40
0.0
 40
0.0
 40
1.0
 40
1.0
 40
1.0
 40
1.0
 10
-7.99215
 20
3.38886
 30
0.0
 10
-7.99215
 20
3.38886
 30
0.0
 10
-7.99215
 20
4.02386
 30
0.0
 10
-7.99215
 20
4.02386
 30
0.0
  0
SPLINE
  5
BF
330
1F
100
AcDbEntity
  8
Warstwa 1
370
    13
100
AcDbSpline
210
0.0
220
0.0
230
1.0
 70
    24
 71
     3
 72
     8
 73
     4
 74
     0
 42
0.0000000001
 43
0.0000000001
 40
0.0
 40
0.0
 40
0.0
 40
0.0
 40
1.0
 40
1.0
 40
1.0
 40
1.0
 10
-7.99215
 20
3.38886
 30
0.0
 10
-7.99215
 20
3.38886
 30
0.0
 10
-7.99215
 20
2.97886
 30
0.0
 10
-7.99215
 20
2.97886
 30
0.0
  0
SPLINE
  5
C0
330
1F
100
AcDbEntity
  8
Warstwa 1
370
    13
100
AcDbSpline
210
0.0
220
0.0
230
1.0
 70
    24
 71
     3
 72
     8
 73
     4
 74
     0
 42
0.0000000001
 43
0.0000000001
 40
0.0
 40
0.0
 40
0.0
 40
0.0
 40
1.0
 40
1.0
 40
1.0
 40
1.0
 10
-7.99215
 20
2.97886
 30
0.0
 10
-7.99215
 20
2.97886
 30
0.0
 10
-7.99215
 20
1.55315
 30
0.0
 10
-7.99215
 20
1.55315
 30
0.0
  0
SPLINE
  5
C1
330
1F
100
AcDbEntity
  8
Warstwa 1
370
    13
100
AcDbSpline
210
0.0
220
0.0
230
1.0
 70
    24
 71
     3
 72
     8
 73
     4
 74
     0
 42
0.0000000001
 43
0.0000000001
 40
0.0
 40
0.0
 40
0.0
 40
0.0
 40
1.0
 40
1.0
 40
1.0
 40
1.0
 10
-1.42943
 20
7.39571
 30
0.0
 10
-1.42943
 20
7.39571
 30
0.0
 10
0.35764
 20
7.39571
 30
0.0
 10
0.35764
 20
7.39571
 30
0.0
  0
SPLINE
  5
C2
330
1F
100
AcDbEntity
  8
Warstwa 1
370
    13
100
AcDbSpline
210
0.0
220
0.0
230
1.0
 70
    24
 71
     3
 72
     8
 73
     4
 74
     0
 42
0.0000000001
 43
0.0000000001
 40
0.0
 40
0.0
 40
0.0
 40
0.0
 40
1.0
 40
1.0
 40
1.0
 40
1.0
 10
-1.42943
 20
5.5957
 30
0.0
 10
-1.42943
 20
5.5957
 30
0.0
 10
0.35764
 20
5.5957
 30
0.0
 10
0.35764
 20
5.5957
 30
0.0
  0
SPLINE
  5
C3
330
1F
100
AcDbEntity
  8
Warstwa 1
370
    13
100
AcDbSpline
210
0.0
220
0.0
230
1.0
 70
    24
 71
     3
 72
     8
 73
     4
 74
     0
 42
0.0000000001
 43
0.0000000001
 40
0.0
 40
0.0
 40
0.0
 40
0.0
 40
1.0
 40
1.0
 40
1.0
 40
1.0
 10
0.25763
 20
7.39571
 30
0.0
 10
0.25763
 20
7.39571
 30
0.0
 10
0.25763
 20
5.5957
 30
0.0
 10
0.25763
 20
5.5957
 30
0.0
  0
SPLINE
  5
C4
330
1F
100
AcDbEntity
  8
Warstwa 1
370
    13
100
AcDbSpline
210
0.0
220
0.0
230
1.0
 70
    24
 71
     3
 72
     8
 73
     4
 74
     0
 42
0.0000000001
 43
0.0000000001
 40
0.0
 40
0.0
 40
0.0
 40
0.0
 40
1.0
 40
1.0
 40
1.0
 40
1.0
 10
-1.42943
 20
7.49569
 30
0.0
 10
-1.42943
 20
7.49569
 30
0.0
 10
0.77191
 20
7.49569
 30
0.0
 10
0.77191
 20
7.49569
 30
0.0
  0
SPLINE
  5
C5
330
1F
100
AcDbEntity
  8
Warstwa 1
370
    13
100
AcDbSpline
210
0.0
220
0.0
230
1.0
 70
    24
 71
     3
 72
     8
 73
     4
 74
     0
 42
0.0000000001
 43
0.0000000001
 40
0.0
 40
0.0
 40
0.0
 40
0.0
 40
1.0
 40
1.0
 40
1.0
 40
1.0
 10
-1.42943
 20
5.49569
 30
0.0
 10
-1.42943
 20
5.49569
 30
0.0
 10
0.77191
 20
5.49569
 30
0.0
 10
0.77191
 20
5.49569
 30
0.0
  0
SPLINE
  5
C6
330
1F
100
AcDbEntity
  8
Warstwa 1
370
    13
100
AcDbSpline
210
0.0
220
0.0
230
1.0
 70
    24
 71
     3
 72
     8
 73
     4
 74
     0
 42
0.0000000001
 43
0.0000000001
 40
0.0
 40
0.0
 40
0.0
 40
0.0
 40
1.0
 40
1.0
 40
1.0
 40
1.0
 10
0.67189
 20
7.49569
 30
0.0
 10
0.67189
 20
7.49569
 30
0.0
 10
0.67189
 20
5.49569
 30
0.0
 10
0.67189
 20
5.49569
 30
0.0
  0
SPLINE
  5
C7
330
1F
100
AcDbEntity
  8
Warstwa 1
370
    13
100
AcDbSpline
210
0.0
220
0.0
230
1.0
 70
    24
 71
     3
 72
     8
 73
     4
 74
     0
 42
0.0000000001
 43
0.0000000001
 40
0.0
 40
0.0
 40
0.0
 40
0.0
 40
1.0
 40
1.0
 40
1.0
 40
1.0
 10
-6.52943
 20
9.30071
 30
0.0
 10
-6.52943
 20
9.30071
 30
0.0
 10
-8.07872
 20
9.30071
 30
0.0
 10
-8.07872
 20
9.30071
 30
0.0
  0
SPLINE
  5
C8
330
1F
100
AcDbEntity
  8
Warstwa 1
370
    13
100
AcDbSpline
210
0.0
220
0.0
230
1.0
 70
    24
 71
     3
 72
     8
 73
     4
 74
     0
 42
0.0000000001
 43
0.0000000001
 40
0.0
 40
0.0
 40
0.0
 40
0.0
 40
1.0
 40
1.0
 40
1.0
 40
1.0
 10
-6.52943
 20
6.49571
 30
0.0
 10
-6.52943
 20
6.49571
 30
0.0
 10
-8.07872
 20
6.49571
 30
0.0
 10
-8.07872
 20
6.49571
 30
0.0
  0
SPLINE
  5
C9
330
1F
100
AcDbEntity
  8
Warstwa 1
370
    13
100
AcDbSpline
210
0.0
220
0.0
230
1.0
 70
    24
 71
     3
 72
     8
 73
     4
 74
     0
 42
0.0000000001
 43
0.0000000001
 40
0.0
 40
0.0
 40
0.0
 40
0.0
 40
1.0
 40
1.0
 40
1.0
 40
1.0
 10
-7.97875
 20
9.30071
 30
0.0
 10
-7.97875
 20
9.30071
 30
0.0
 10
-7.97875
 20
6.49571
 30
0.0
 10
-7.97875
 20
6.49571
 30
0.0
  0
SPLINE
  5
CA
330
1F
100
AcDbEntity
  8
Warstwa 1
370
    13
100
AcDbSpline
210
0.0
220
0.0
230
1.0
 70
    24
 71
     3
 72
     8
 73
     4
 74
     0
 42
0.0000000001
 43
0.0000000001
 40
0.0
 40
0.0
 40
0.0
 40
0.0
 40
1.0
 40
1.0
 40
1.0
 40
1.0
 10
3.23285
 20
-5.11111
 30
0.0
 10
3.23285
 20
-5.11111
 30
0.0
 10
3.30242
 20
-5.11111
 30
0.0
 10
3.30242
 20
-5.11111
 30
0.0
  0
SPLINE
  5
CB
330
1F
100
AcDbEntity
  8
Warstwa 1
370
    13
100
AcDbSpline
210
0.0
220
0.0
230
1.0
 70
    24
 71
     3
 72
     8
 73
     4
 74
     0
 42
0.0000000001
 43
0.0000000001
 40
0.0
 40
0.0
 40
0.0
 40
0.0
 40
1.0
 40
1.0
 40
1.0
 40
1.0
 10
3.3728
 20
-7.46114
 30
0.0
 10
3.3728
 20
-7.46114
 30
0.0
 10
3.30242
 20
-7.46114
 30
0.0
 10
3.30242
 20
-7.46114
 30
0.0
  0
SPLINE
  5
CC
330
1F
100
AcDbEntity
  8
Warstwa 1
370
    13
100
AcDbSpline
210
0.0
220
0.0
230
1.0
 70
    24
 71
     3
 72
     8
 73
     4
 74
     0
 42
0.0000000001
 43
0.0000000001
 40
0.0
 40
0.0
 40
0.0
 40
0.0
 40
1.0
 40
1.0
 40
1.0
 40
1.0
 10
3.40243
 20
-5.11111
 30
0.0
 10
3.40243
 20
-5.11111
 30
0.0
 10
3.40243
 20
-7.46114
 30
0.0
 10
3.40243
 20
-7.46114
 30
0.0
  0
SPLINE
  5
CD
330
1F
100
AcDbEntity
  8
Warstwa 1
370
    13
100
AcDbSpline
210
0.0
220
0.0
230
1.0
 70
    24
 71
     3
 72
     8
 73
     4
 74
     0
 42
0.0000000001
 43
0.0000000001
 40
0.0
 40
0.0
 40
0.0
 40
0.0
 40
1.0
 40
1.0
 40
1.0
 40
1.0
 10
-7.3444
 20
10.53072
 30
0.0
 10
-7.3444
 20
10.53072
 30
0.0
 10
-8.07875
 20
10.53072
 30
0.0
 10
-8.07875
 20
10.53072
 30
0.0
  0
SPLINE
  5
CE
330
1F
100
AcDbEntity
  8
Warstwa 1
370
    13
100
AcDbSpline
210
0.0
220
0.0
230
1.0
 70
    24
 71
     3
 72
     8
 73
     4
 74
     0
 42
0.0000000001
 43
0.0000000001
 40
0.0
 40
0.0
 40
0.0
 40
0.0
 40
1.0
 40
1.0
 40
1.0
 40
1.0
 10
-6.52942
 20
9.30072
 30
0.0
 10
-6.52942
 20
9.30072
 30
0.0
 10
-8.07875
 20
9.30072
 30
0.0
 10
-8.07875
 20
9.30072
 30
0.0
  0
SPLINE
  5
CF
330
1F
100
AcDbEntity
  8
Warstwa 1
370
    13
100
AcDbSpline
210
0.0
220
0.0
230
1.0
 70
    24
 71
     3
 72
     8
 73
     4
 74
     0
 42
0.0000000001
 43
0.0000000001
 40
0.0
 40
0.0
 40
0.0
 40
0.0
 40
1.0
 40
1.0
 40
1.0
 40
1.0
 10
-7.97873
 20
10.53072
 30
0.0
 10
-7.97873
 20
10.53072
 30
0.0
 10
-7.97873
 20
9.30072
 30
0.0
 10
-7.97873
 20
9.30072
 30
0.0
  0
SPLINE
  5
D0
330
1F
100
AcDbEntity
  8
Warstwa 1
100
AcDbSpline
210
0.0
220
0.0
230
1.0
 70
    11
 71
     3
 72
    16
 73
    12
 74
     0
 42
0.0000000001
 43
0.0000000001
 40
0.0
 40
0.0
 40
0.0
 40
0.0
 40
0.25
 40
0.25
 40
0.25
 40
0.25
 40
0.5
 40
0.5
 40
0.5
 40
0.5
 40
1.0
 40
1.0
 40
1.0
 40
1.0
 10
-0.36691
 20
-12.98774
 30
0.0
 10
-0.36691
 20
-12.98774
 30
0.0
 10
-0.03671
 20
-12.93694
 30
0.0
 10
-0.03671
 20
-12.93694
 30
0.0
 10
-0.03671
 20
-12.93694
 30
0.0
 10
-0.03671
 20
-12.93694
 30
0.0
 10
-0.03671
 20
-13.03851
 30
0.0
 10
-0.03671
 20
-13.03851
 30
0.0
 10
-0.03671
 20
-13.03851
 30
0.0
 10
-0.03671
 20
-13.03851
 30
0.0
 10
-0.36691
 20
-12.98774
 30
0.0
 10
-0.36691
 20
-12.98774
 30
0.0
  0
SPLINE
  5
D1
330
1F
100
AcDbEntity
  8
Warstwa 1
100
AcDbSpline
210
0.0
220
0.0
230
1.0
 70
    11
 71
     3
 72
    16
 73
    12
 74
     0
 42
0.0000000001
 43
0.0000000001
 40
0.0
 40
0.0
 40
0.0
 40
0.0
 40
0.25
 40
0.25
 40
0.25
 40
0.25
 40
0.5
 40
0.5
 40
0.5
 40
0.5
 40
1.0
 40
1.0
 40
1.0
 40
1.0
 10
-1.37942
 20
-12.98774
 30
0.0
 10
-1.37942
 20
-12.98774
 30
0.0
 10
-1.70962
 20
-13.03851
 30
0.0
 10
-1.70962
 20
-13.03851
 30
0.0
 10
-1.70962
 20
-13.03851
 30
0.0
 10
-1.70962
 20
-13.03851
 30
0.0
 10
-1.70962
 20
-12.93694
 30
0.0
 10
-1.70962
 20
-12.93694
 30
0.0
 10
-1.70962
 20
-12.93694
 30
0.0
 10
-1.70962
 20
-12.93694
 30
0.0
 10
-1.37942
 20
-12.98774
 30
0.0
 10
-1.37942
 20
-12.98774
 30
0.0
  0
SPLINE
  5
D2
330
1F
100
AcDbEntity
  8
Warstwa 1
100
AcDbSpline
210
0.0
220
0.0
230
1.0
 70
    11
 71
     3
 72
    16
 73
    12
 74
     0
 42
0.0000000001
 43
0.0000000001
 40
0.0
 40
0.0
 40
0.0
 40
0.0
 40
0.25
 40
0.25
 40
0.25
 40
0.25
 40
0.5
 40
0.5
 40
0.5
 40
0.5
 40
1.0
 40
1.0
 40
1.0
 40
1.0
 10
-7.59192
 20
11.53121
 30
0.0
 10
-7.59192
 20
11.53121
 30
0.0
 10
-7.26172
 20
11.58201
 30
0.0
 10
-7.26172
 20
11.58201
 30
0.0
 10
-7.26172
 20
11.58201
 30
0.0
 10
-7.26172
 20
11.58201
 30
0.0
 10
-7.26172
 20
11.48041
 30
0.0
 10
-7.26172
 20
11.48041
 30
0.0
 10
-7.26172
 20
11.48041
 30
0.0
 10
-7.26172
 20
11.48041
 30
0.0
 10
-7.59192
 20
11.53121
 30
0.0
 10
-7.59192
 20
11.53121
 30
0.0
  0
SPLINE
  5
D3
330
1F
100
AcDbEntity
  8
Warstwa 1
100
AcDbSpline
210
0.0
220
0.0
230
1.0
 70
    11
 71
     3
 72
    16
 73
    12
 74
     0
 42
0.0000000001
 43
0.0000000001
 40
0.0
 40
0.0
 40
0.0
 40
0.0
 40
0.25
 40
0.25
 40
0.25
 40
0.25
 40
0.5
 40
0.5
 40
0.5
 40
0.5
 40
1.0
 40
1.0
 40
1.0
 40
1.0
 10
-0.36692
 20
11.53121
 30
0.0
 10
-0.36692
 20
11.53121
 30
0.0
 10
-0.69712
 20
11.48041
 30
0.0
 10
-0.69712
 20
11.48041
 30
0.0
 10
-0.69712
 20
11.48041
 30
0.0
 10
-0.69712
 20
11.48041
 30
0.0
 10
-0.69712
 20
11.58201
 30
0.0
 10
-0.69712
 20
11.58201
 30
0.0
 10
-0.69712
 20
11.58201
 30
0.0
 10
-0.69712
 20
11.58201
 30
0.0
 10
-0.36692
 20
11.53121
 30
0.0
 10
-0.36692
 20
11.53121
 30
0.0
  0
SPLINE
  5
D4
330
1F
100
AcDbEntity
  8
Warstwa 1
100
AcDbSpline
210
0.0
220
0.0
230
1.0
 70
    11
 71
     3
 72
    16
 73
    12
 74
     0
 42
0.0000000001
 43
0.0000000001
 40
0.0
 40
0.0
 40
0.0
 40
0.0
 40
0.25
 40
0.25
 40
0.25
 40
0.25
 40
0.5
 40
0.5
 40
0.5
 40
0.5
 40
1.0
 40
1.0
 40
1.0
 40
1.0
 10
-6.42941
 20
11.07842
 30
0.0
 10
-6.42941
 20
11.07842
 30
0.0
 10
-6.09921
 20
11.12922
 30
0.0
 10
-6.09921
 20
11.12922
 30
0.0
 10
-6.09921
 20
11.12922
 30
0.0
 10
-6.09921
 20
11.12922
 30
0.0
 10
-6.09921
 20
11.02762
 30
0.0
 10
-6.09921
 20
11.02762
 30
0.0
 10
-6.09921
 20
11.02762
 30
0.0
 10
-6.09921
 20
11.02762
 30
0.0
 10
-6.42941
 20
11.07842
 30
0.0
 10
-6.42941
 20
11.07842
 30
0.0
  0
SPLINE
  5
D5
330
1F
100
AcDbEntity
  8
Warstwa 1
100
AcDbSpline
210
0.0
220
0.0
230
1.0
 70
    11
 71
     3
 72
    16
 73
    12
 74
     0
 42
0.0000000001
 43
0.0000000001
 40
0.0
 40
0.0
 40
0.0
 40
0.0
 40
0.25
 40
0.25
 40
0.25
 40
0.25
 40
0.5
 40
0.5
 40
0.5
 40
0.5
 40
1.0
 40
1.0
 40
1.0
 40
1.0
 10
-1.52943
 20
11.07842
 30
0.0
 10
-1.52943
 20
11.07842
 30
0.0
 10
-1.85963
 20
11.02762
 30
0.0
 10
-1.85963
 20
11.02762
 30
0.0
 10
-1.85963
 20
11.02762
 30
0.0
 10
-1.85963
 20
11.02762
 30
0.0
 10
-1.85963
 20
11.12922
 30
0.0
 10
-1.85963
 20
11.12922
 30
0.0
 10
-1.85963
 20
11.12922
 30
0.0
 10
-1.85963
 20
11.12922
 30
0.0
 10
-1.52943
 20
11.07842
 30
0.0
 10
-1.52943
 20
11.07842
 30
0.0
  0
SPLINE
  5
D6
330
1F
100
AcDbEntity
  8
Warstwa 1
100
AcDbSpline
210
0.0
220
0.0
230
1.0
 70
    11
 71
     3
 72
    16
 73
    12
 74
     0
 42
0.0000000001
 43
0.0000000001
 40
0.0
 40
0.0
 40
0.0
 40
0.0
 40
0.25
 40
0.25
 40
0.25
 40
0.25
 40
0.5
 40
0.5
 40
0.5
 40
0.5
 40
1.0
 40
1.0
 40
1.0
 40
1.0
 10
-7.5844
 20
-12.72135
 30
0.0
 10
-7.5844
 20
-12.72135
 30
0.0
 10
-7.9146
 20
-12.77215
 30
0.0
 10
-7.9146
 20
-12.77215
 30
0.0
 10
-7.9146
 20
-12.77215
 30
0.0
 10
-7.9146
 20
-12.77215
 30
0.0
 10
-7.9146
 20
-12.67055
 30
0.0
 10
-7.9146
 20
-12.67055
 30
0.0
 10
-7.9146
 20
-12.67055
 30
0.0
 10
-7.9146
 20
-12.67055
 30
0.0
 10
-7.5844
 20
-12.72135
 30
0.0
 10
-7.5844
 20
-12.72135
 30
0.0
  0
SPLINE
  5
D7
330
1F
100
AcDbEntity
  8
Warstwa 1
100
AcDbSpline
210
0.0
220
0.0
230
1.0
 70
    11
 71
     3
 72
    16
 73
    12
 74
     0
 42
0.0000000001
 43
0.0000000001
 40
0.0
 40
0.0
 40
0.0
 40
0.0
 40
0.25
 40
0.25
 40
0.25
 40
0.25
 40
0.5
 40
0.5
 40
0.5
 40
0.5
 40
1.0
 40
1.0
 40
1.0
 40
1.0
 10
-6.57941
 20
-12.72135
 30
0.0
 10
-6.57941
 20
-12.72135
 30
0.0
 10
-6.24921
 20
-12.67055
 30
0.0
 10
-6.24921
 20
-12.67055
 30
0.0
 10
-6.24921
 20
-12.67055
 30
0.0
 10
-6.24921
 20
-12.67055
 30
0.0
 10
-6.24921
 20
-12.77215
 30
0.0
 10
-6.24921
 20
-12.77215
 30
0.0
 10
-6.24921
 20
-12.77215
 30
0.0
 10
-6.24921
 20
-12.77215
 30
0.0
 10
-6.57941
 20
-12.72135
 30
0.0
 10
-6.57941
 20
-12.72135
 30
0.0
  0
SPLINE
  5
D8
330
1F
100
AcDbEntity
  8
Warstwa 1
100
AcDbSpline
210
0.0
220
0.0
230
1.0
 70
    11
 71
     3
 72
    16
 73
    12
 74
     0
 42
0.0000000001
 43
0.0000000001
 40
0.0
 40
0.0
 40
0.0
 40
0.0
 40
0.25
 40
0.25
 40
0.25
 40
0.25
 40
0.5
 40
0.5
 40
0.5
 40
0.5
 40
1.0
 40
1.0
 40
1.0
 40
1.0
 10
8.47282
 20
4.38887
 30
0.0
 10
8.47282
 20
4.38887
 30
0.0
 10
8.80302
 20
4.43967
 30
0.0
 10
8.80302
 20
4.43967
 30
0.0
 10
8.80302
 20
4.43967
 30
0.0
 10
8.80302
 20
4.43967
 30
0.0
 10
8.80302
 20
4.33807
 30
0.0
 10
8.80302
 20
4.33807
 30
0.0
 10
8.80302
 20
4.33807
 30
0.0
 10
8.80302
 20
4.33807
 30
0.0
 10
8.47282
 20
4.38887
 30
0.0
 10
8.47282
 20
4.38887
 30
0.0
  0
SPLINE
  5
D9
330
1F
100
AcDbEntity
  8
Warstwa 1
100
AcDbSpline
210
0.0
220
0.0
230
1.0
 70
    11
 71
     3
 72
    16
 73
    12
 74
     0
 42
0.0000000001
 43
0.0000000001
 40
0.0
 40
0.0
 40
0.0
 40
0.0
 40
0.25
 40
0.25
 40
0.25
 40
0.25
 40
0.5
 40
0.5
 40
0.5
 40
0.5
 40
1.0
 40
1.0
 40
1.0
 40
1.0
 10
8.37281
 20
4.38887
 30
0.0
 10
8.37281
 20
4.38887
 30
0.0
 10
8.04261
 20
4.33807
 30
0.0
 10
8.04261
 20
4.33807
 30
0.0
 10
8.04261
 20
4.33807
 30
0.0
 10
8.04261
 20
4.33807
 30
0.0
 10
8.04261
 20
4.43967
 30
0.0
 10
8.04261
 20
4.43967
 30
0.0
 10
8.04261
 20
4.43967
 30
0.0
 10
8.04261
 20
4.43967
 30
0.0
 10
8.37281
 20
4.38887
 30
0.0
 10
8.37281
 20
4.38887
 30
0.0
  0
SPLINE
  5
DA
330
1F
100
AcDbEntity
  8
Warstwa 1
100
AcDbSpline
210
0.0
220
0.0
230
1.0
 70
    11
 71
     3
 72
    16
 73
    12
 74
     0
 42
0.0000000001
 43
0.0000000001
 40
0.0
 40
0.0
 40
0.0
 40
0.0
 40
0.25
 40
0.25
 40
0.25
 40
0.25
 40
0.5
 40
0.5
 40
0.5
 40
0.5
 40
1.0
 40
1.0
 40
1.0
 40
1.0
 10
-8.58174
 20
-12.22093
 30
0.0
 10
-8.58174
 20
-12.22093
 30
0.0
 10
-8.63254
 20
-11.89073
 30
0.0
 10
-8.63254
 20
-11.89073
 30
0.0
 10
-8.63254
 20
-11.89073
 30
0.0
 10
-8.63254
 20
-11.89073
 30
0.0
 10
-8.53094
 20
-11.89073
 30
0.0
 10
-8.53094
 20
-11.89073
 30
0.0
 10
-8.53094
 20
-11.89073
 30
0.0
 10
-8.53094
 20
-11.89073
 30
0.0
 10
-8.58174
 20
-12.22093
 30
0.0
 10
-8.58174
 20
-12.22093
 30
0.0
  0
SPLINE
  5
DB
330
1F
100
AcDbEntity
  8
Warstwa 1
100
AcDbSpline
210
0.0
220
0.0
230
1.0
 70
    11
 71
     3
 72
    16
 73
    12
 74
     0
 42
0.0000000001
 43
0.0000000001
 40
0.0
 40
0.0
 40
0.0
 40
0.0
 40
0.25
 40
0.25
 40
0.25
 40
0.25
 40
0.5
 40
0.5
 40
0.5
 40
0.5
 40
1.0
 40
1.0
 40
1.0
 40
1.0
 10
-8.58174
 20
-9.58844
 30
0.0
 10
-8.58174
 20
-9.58844
 30
0.0
 10
-8.53094
 20
-9.9186
 30
0.0
 10
-8.53094
 20
-9.9186
 30
0.0
 10
-8.53094
 20
-9.9186
 30
0.0
 10
-8.53094
 20
-9.9186
 30
0.0
 10
-8.63254
 20
-9.9186
 30
0.0
 10
-8.63254
 20
-9.9186
 30
0.0
 10
-8.63254
 20
-9.9186
 30
0.0
 10
-8.63254
 20
-9.9186
 30
0.0
 10
-8.58174
 20
-9.58844
 30
0.0
 10
-8.58174
 20
-9.58844
 30
0.0
  0
SPLINE
  5
DC
330
1F
100
AcDbEntity
  8
Warstwa 1
100
AcDbSpline
210
0.0
220
0.0
230
1.0
 70
    11
 71
     3
 72
    16
 73
    12
 74
     0
 42
0.0000000001
 43
0.0000000001
 40
0.0
 40
0.0
 40
0.0
 40
0.0
 40
0.25
 40
0.25
 40
0.25
 40
0.25
 40
0.5
 40
0.5
 40
0.5
 40
0.5
 40
1.0
 40
1.0
 40
1.0
 40
1.0
 10
-8.06474
 20
-12.07093
 30
0.0
 10
-8.06474
 20
-12.07093
 30
0.0
 10
-8.11554
 20
-11.74073
 30
0.0
 10
-8.11554
 20
-11.74073
 30
0.0
 10
-8.11554
 20
-11.74073
 30
0.0
 10
-8.11554
 20
-11.74073
 30
0.0
 10
-8.01394
 20
-11.74073
 30
0.0
 10
-8.01394
 20
-11.74073
 30
0.0
 10
-8.01394
 20
-11.74073
 30
0.0
 10
-8.01394
 20
-11.74073
 30
0.0
 10
-8.06474
 20
-12.07093
 30
0.0
 10
-8.06474
 20
-12.07093
 30
0.0
  0
SPLINE
  5
DD
330
1F
100
AcDbEntity
  8
Warstwa 1
100
AcDbSpline
210
0.0
220
0.0
230
1.0
 70
    11
 71
     3
 72
    16
 73
    12
 74
     0
 42
0.0000000001
 43
0.0000000001
 40
0.0
 40
0.0
 40
0.0
 40
0.0
 40
0.25
 40
0.25
 40
0.25
 40
0.25
 40
0.5
 40
0.5
 40
0.5
 40
0.5
 40
1.0
 40
1.0
 40
1.0
 40
1.0
 10
-8.06474
 20
-9.58844
 30
0.0
 10
-8.06474
 20
-9.58844
 30
0.0
 10
-8.01394
 20
-9.9186
 30
0.0
 10
-8.01394
 20
-9.9186
 30
0.0
 10
-8.01394
 20
-9.9186
 30
0.0
 10
-8.01394
 20
-9.9186
 30
0.0
 10
-8.11554
 20
-9.9186
 30
0.0
 10
-8.11554
 20
-9.9186
 30
0.0
 10
-8.11554
 20
-9.9186
 30
0.0
 10
-8.11554
 20
-9.9186
 30
0.0
 10
-8.06474
 20
-9.58844
 30
0.0
 10
-8.06474
 20
-9.58844
 30
0.0
  0
SPLINE
  5
DE
330
1F
100
AcDbEntity
  8
Warstwa 1
100
AcDbSpline
210
0.0
220
0.0
230
1.0
 70
    11
 71
     3
 72
    16
 73
    12
 74
     0
 42
0.0000000001
 43
0.0000000001
 40
0.0
 40
0.0
 40
0.0
 40
0.0
 40
0.25
 40
0.25
 40
0.25
 40
0.25
 40
0.5
 40
0.5
 40
0.5
 40
0.5
 40
1.0
 40
1.0
 40
1.0
 40
1.0
 10
-8.64317
 20
4.8682
 30
0.0
 10
-8.64317
 20
4.8682
 30
0.0
 10
-8.69397
 20
5.1984
 30
0.0
 10
-8.69397
 20
5.1984
 30
0.0
 10
-8.69397
 20
5.1984
 30
0.0
 10
-8.69397
 20
5.1984
 30
0.0
 10
-8.59237
 20
5.1984
 30
0.0
 10
-8.59237
 20
5.1984
 30
0.0
 10
-8.59237
 20
5.1984
 30
0.0
 10
-8.59237
 20
5.1984
 30
0.0
 10
-8.64317
 20
4.8682
 30
0.0
 10
-8.64317
 20
4.8682
 30
0.0
  0
SPLINE
  5
DF
330
1F
100
AcDbEntity
  8
Warstwa 1
100
AcDbSpline
210
0.0
220
0.0
230
1.0
 70
    11
 71
     3
 72
    16
 73
    12
 74
     0
 42
0.0000000001
 43
0.0000000001
 40
0.0
 40
0.0
 40
0.0
 40
0.0
 40
0.25
 40
0.25
 40
0.25
 40
0.25
 40
0.5
 40
0.5
 40
0.5
 40
0.5
 40
1.0
 40
1.0
 40
1.0
 40
1.0
 10
-8.64317
 20
10.53071
 30
0.0
 10
-8.64317
 20
10.53071
 30
0.0
 10
-8.59237
 20
10.20051
 30
0.0
 10
-8.59237
 20
10.20051
 30
0.0
 10
-8.59237
 20
10.20051
 30
0.0
 10
-8.59237
 20
10.20051
 30
0.0
 10
-8.69397
 20
10.20051
 30
0.0
 10
-8.69397
 20
10.20051
 30
0.0
 10
-8.69397
 20
10.20051
 30
0.0
 10
-8.69397
 20
10.20051
 30
0.0
 10
-8.64317
 20
10.53071
 30
0.0
 10
-8.64317
 20
10.53071
 30
0.0
  0
SPLINE
  5
E0
330
1F
100
AcDbEntity
  8
Warstwa 1
100
AcDbSpline
210
0.0
220
0.0
230
1.0
 70
    11
 71
     3
 72
    16
 73
    12
 74
     0
 42
0.0000000001
 43
0.0000000001
 40
0.0
 40
0.0
 40
0.0
 40
0.0
 40
0.25
 40
0.25
 40
0.25
 40
0.25
 40
0.5
 40
0.5
 40
0.5
 40
0.5
 40
1.0
 40
1.0
 40
1.0
 40
1.0
 10
-8.65306
 20
3.38886
 30
0.0
 10
-8.65306
 20
3.38886
 30
0.0
 10
-8.60226
 20
3.05866
 30
0.0
 10
-8.60226
 20
3.05866
 30
0.0
 10
-8.60226
 20
3.05866
 30
0.0
 10
-8.60226
 20
3.05866
 30
0.0
 10
-8.70386
 20
3.05866
 30
0.0
 10
-8.70386
 20
3.05866
 30
0.0
 10
-8.70386
 20
3.05866
 30
0.0
 10
-8.70386
 20
3.05866
 30
0.0
 10
-8.65306
 20
3.38886
 30
0.0
 10
-8.65306
 20
3.38886
 30
0.0
  0
SPLINE
  5
E1
330
1F
100
AcDbEntity
  8
Warstwa 1
100
AcDbSpline
210
0.0
220
0.0
230
1.0
 70
    11
 71
     3
 72
    16
 73
    12
 74
     0
 42
0.0000000001
 43
0.0000000001
 40
0.0
 40
0.0
 40
0.0
 40
0.0
 40
0.25
 40
0.25
 40
0.25
 40
0.25
 40
0.5
 40
0.5
 40
0.5
 40
0.5
 40
1.0
 40
1.0
 40
1.0
 40
1.0
 10
-8.65306
 20
-5.11111
 30
0.0
 10
-8.65306
 20
-5.11111
 30
0.0
 10
-8.70386
 20
-4.78094
 30
0.0
 10
-8.70386
 20
-4.78094
 30
0.0
 10
-8.70386
 20
-4.78094
 30
0.0
 10
-8.70386
 20
-4.78094
 30
0.0
 10
-8.60226
 20
-4.78094
 30
0.0
 10
-8.60226
 20
-4.78094
 30
0.0
 10
-8.60226
 20
-4.78094
 30
0.0
 10
-8.60226
 20
-4.78094
 30
0.0
 10
-8.65306
 20
-5.11111
 30
0.0
 10
-8.65306
 20
-5.11111
 30
0.0
  0
SPLINE
  5
E2
330
1F
100
AcDbEntity
  8
Warstwa 1
100
AcDbSpline
210
0.0
220
0.0
230
1.0
 70
    11
 71
     3
 72
    16
 73
    12
 74
     0
 42
0.0000000001
 43
0.0000000001
 40
0.0
 40
0.0
 40
0.0
 40
0.0
 40
0.25
 40
0.25
 40
0.25
 40
0.25
 40
0.5
 40
0.5
 40
0.5
 40
0.5
 40
1.0
 40
1.0
 40
1.0
 40
1.0
 10
-7.99213
 20
3.38886
 30
0.0
 10
-7.99213
 20
3.38886
 30
0.0
 10
-8.04293
 20
3.71906
 30
0.0
 10
-8.04293
 20
3.71906
 30
0.0
 10
-8.04293
 20
3.71906
 30
0.0
 10
-8.04293
 20
3.71906
 30
0.0
 10
-7.94133
 20
3.71906
 30
0.0
 10
-7.94133
 20
3.71906
 30
0.0
 10
-7.94133
 20
3.71906
 30
0.0
 10
-7.94133
 20
3.71906
 30
0.0
 10
-7.99213
 20
3.38886
 30
0.0
 10
-7.99213
 20
3.38886
 30
0.0
  0
SPLINE
  5
E3
330
1F
100
AcDbEntity
  8
Warstwa 1
100
AcDbSpline
210
0.0
220
0.0
230
1.0
 70
    11
 71
     3
 72
    16
 73
    12
 74
     0
 42
0.0000000001
 43
0.0000000001
 40
0.0
 40
0.0
 40
0.0
 40
0.0
 40
0.25
 40
0.25
 40
0.25
 40
0.25
 40
0.5
 40
0.5
 40
0.5
 40
0.5
 40
1.0
 40
1.0
 40
1.0
 40
1.0
 10
-7.99213
 20
2.97886
 30
0.0
 10
-7.99213
 20
2.97886
 30
0.0
 10
-7.94133
 20
2.64866
 30
0.0
 10
-7.94133
 20
2.64866
 30
0.0
 10
-7.94133
 20
2.64866
 30
0.0
 10
-7.94133
 20
2.64866
 30
0.0
 10
-8.04293
 20
2.64866
 30
0.0
 10
-8.04293
 20
2.64866
 30
0.0
 10
-8.04293
 20
2.64866
 30
0.0
 10
-8.04293
 20
2.64866
 30
0.0
 10
-7.99213
 20
2.97886
 30
0.0
 10
-7.99213
 20
2.97886
 30
0.0
  0
SPLINE
  5
E4
330
1F
100
AcDbEntity
  8
Warstwa 1
100
AcDbSpline
210
0.0
220
0.0
230
1.0
 70
    11
 71
     3
 72
    16
 73
    12
 74
     0
 42
0.0000000001
 43
0.0000000001
 40
0.0
 40
0.0
 40
0.0
 40
0.0
 40
0.25
 40
0.25
 40
0.25
 40
0.25
 40
0.5
 40
0.5
 40
0.5
 40
0.5
 40
1.0
 40
1.0
 40
1.0
 40
1.0
 10
0.25762
 20
7.39571
 30
0.0
 10
0.25762
 20
7.39571
 30
0.0
 10
0.30842
 20
7.06551
 30
0.0
 10
0.30842
 20
7.06551
 30
0.0
 10
0.30842
 20
7.06551
 30
0.0
 10
0.30842
 20
7.06551
 30
0.0
 10
0.20682
 20
7.06551
 30
0.0
 10
0.20682
 20
7.06551
 30
0.0
 10
0.20682
 20
7.06551
 30
0.0
 10
0.20682
 20
7.06551
 30
0.0
 10
0.25762
 20
7.39571
 30
0.0
 10
0.25762
 20
7.39571
 30
0.0
  0
SPLINE
  5
E5
330
1F
100
AcDbEntity
  8
Warstwa 1
100
AcDbSpline
210
0.0
220
0.0
230
1.0
 70
    11
 71
     3
 72
    16
 73
    12
 74
     0
 42
0.0000000001
 43
0.0000000001
 40
0.0
 40
0.0
 40
0.0
 40
0.0
 40
0.25
 40
0.25
 40
0.25
 40
0.25
 40
0.5
 40
0.5
 40
0.5
 40
0.5
 40
1.0
 40
1.0
 40
1.0
 40
1.0
 10
0.25762
 20
5.5957
 30
0.0
 10
0.25762
 20
5.5957
 30
0.0
 10
0.20682
 20
5.9259
 30
0.0
 10
0.20682
 20
5.9259
 30
0.0
 10
0.20682
 20
5.9259
 30
0.0
 10
0.20682
 20
5.9259
 30
0.0
 10
0.30842
 20
5.9259
 30
0.0
 10
0.30842
 20
5.9259
 30
0.0
 10
0.30842
 20
5.9259
 30
0.0
 10
0.30842
 20
5.9259
 30
0.0
 10
0.25762
 20
5.5957
 30
0.0
 10
0.25762
 20
5.5957
 30
0.0
  0
SPLINE
  5
E6
330
1F
100
AcDbEntity
  8
Warstwa 1
100
AcDbSpline
210
0.0
220
0.0
230
1.0
 70
    11
 71
     3
 72
    16
 73
    12
 74
     0
 42
0.0000000001
 43
0.0000000001
 40
0.0
 40
0.0
 40
0.0
 40
0.0
 40
0.25
 40
0.25
 40
0.25
 40
0.25
 40
0.5
 40
0.5
 40
0.5
 40
0.5
 40
1.0
 40
1.0
 40
1.0
 40
1.0
 10
0.67188
 20
7.49569
 30
0.0
 10
0.67188
 20
7.49569
 30
0.0
 10
0.72272
 20
7.16549
 30
0.0
 10
0.72272
 20
7.16549
 30
0.0
 10
0.72272
 20
7.16549
 30
0.0
 10
0.72272
 20
7.16549
 30
0.0
 10
0.62112
 20
7.16549
 30
0.0
 10
0.62112
 20
7.16549
 30
0.0
 10
0.62112
 20
7.16549
 30
0.0
 10
0.62112
 20
7.16549
 30
0.0
 10
0.67188
 20
7.49569
 30
0.0
 10
0.67188
 20
7.49569
 30
0.0
  0
SPLINE
  5
E7
330
1F
100
AcDbEntity
  8
Warstwa 1
100
AcDbSpline
210
0.0
220
0.0
230
1.0
 70
    11
 71
     3
 72
    16
 73
    12
 74
     0
 42
0.0000000001
 43
0.0000000001
 40
0.0
 40
0.0
 40
0.0
 40
0.0
 40
0.25
 40
0.25
 40
0.25
 40
0.25
 40
0.5
 40
0.5
 40
0.5
 40
0.5
 40
1.0
 40
1.0
 40
1.0
 40
1.0
 10
0.67188
 20
5.49569
 30
0.0
 10
0.67188
 20
5.49569
 30
0.0
 10
0.62112
 20
5.82589
 30
0.0
 10
0.62112
 20
5.82589
 30
0.0
 10
0.62112
 20
5.82589
 30
0.0
 10
0.62112
 20
5.82589
 30
0.0
 10
0.72272
 20
5.82589
 30
0.0
 10
0.72272
 20
5.82589
 30
0.0
 10
0.72272
 20
5.82589
 30
0.0
 10
0.72272
 20
5.82589
 30
0.0
 10
0.67188
 20
5.49569
 30
0.0
 10
0.67188
 20
5.49569
 30
0.0
  0
SPLINE
  5
E8
330
1F
100
AcDbEntity
  8
Warstwa 1
100
AcDbSpline
210
0.0
220
0.0
230
1.0
 70
    11
 71
     3
 72
    16
 73
    12
 74
     0
 42
0.0000000001
 43
0.0000000001
 40
0.0
 40
0.0
 40
0.0
 40
0.0
 40
0.25
 40
0.25
 40
0.25
 40
0.25
 40
0.5
 40
0.5
 40
0.5
 40
0.5
 40
1.0
 40
1.0
 40
1.0
 40
1.0
 10
-7.97876
 20
9.30071
 30
0.0
 10
-7.97876
 20
9.30071
 30
0.0
 10
-7.92796
 20
8.97051
 30
0.0
 10
-7.92796
 20
8.97051
 30
0.0
 10
-7.92796
 20
8.97051
 30
0.0
 10
-7.92796
 20
8.97051
 30
0.0
 10
-8.02956
 20
8.97051
 30
0.0
 10
-8.02956
 20
8.97051
 30
0.0
 10
-8.02956
 20
8.97051
 30
0.0
 10
-8.02956
 20
8.97051
 30
0.0
 10
-7.97876
 20
9.30071
 30
0.0
 10
-7.97876
 20
9.30071
 30
0.0
  0
SPLINE
  5
E9
330
1F
100
AcDbEntity
  8
Warstwa 1
100
AcDbSpline
210
0.0
220
0.0
230
1.0
 70
    11
 71
     3
 72
    16
 73
    12
 74
     0
 42
0.0000000001
 43
0.0000000001
 40
0.0
 40
0.0
 40
0.0
 40
0.0
 40
0.25
 40
0.25
 40
0.25
 40
0.25
 40
0.5
 40
0.5
 40
0.5
 40
0.5
 40
1.0
 40
1.0
 40
1.0
 40
1.0
 10
-7.97876
 20
6.49571
 30
0.0
 10
-7.97876
 20
6.49571
 30
0.0
 10
-8.02956
 20
6.82591
 30
0.0
 10
-8.02956
 20
6.82591
 30
0.0
 10
-8.02956
 20
6.82591
 30
0.0
 10
-8.02956
 20
6.82591
 30
0.0
 10
-7.92796
 20
6.82591
 30
0.0
 10
-7.92796
 20
6.82591
 30
0.0
 10
-7.92796
 20
6.82591
 30
0.0
 10
-7.92796
 20
6.82591
 30
0.0
 10
-7.97876
 20
6.49571
 30
0.0
 10
-7.97876
 20
6.49571
 30
0.0
  0
SPLINE
  5
EA
330
1F
100
AcDbEntity
  8
Warstwa 1
100
AcDbSpline
210
0.0
220
0.0
230
1.0
 70
    11
 71
     3
 72
    16
 73
    12
 74
     0
 42
0.0000000001
 43
0.0000000001
 40
0.0
 40
0.0
 40
0.0
 40
0.0
 40
0.25
 40
0.25
 40
0.25
 40
0.25
 40
0.5
 40
0.5
 40
0.5
 40
0.5
 40
1.0
 40
1.0
 40
1.0
 40
1.0
 10
3.40242
 20
-5.11111
 30
0.0
 10
3.40242
 20
-5.11111
 30
0.0
 10
3.45322
 20
-5.44134
 30
0.0
 10
3.45322
 20
-5.44134
 30
0.0
 10
3.45322
 20
-5.44134
 30
0.0
 10
3.45322
 20
-5.44134
 30
0.0
 10
3.35162
 20
-5.44134
 30
0.0
 10
3.35162
 20
-5.44134
 30
0.0
 10
3.35162
 20
-5.44134
 30
0.0
 10
3.35162
 20
-5.44134
 30
0.0
 10
3.40242
 20
-5.11111
 30
0.0
 10
3.40242
 20
-5.11111
 30
0.0
  0
SPLINE
  5
EB
330
1F
100
AcDbEntity
  8
Warstwa 1
100
AcDbSpline
210
0.0
220
0.0
230
1.0
 70
    11
 71
     3
 72
    16
 73
    12
 74
     0
 42
0.0000000001
 43
0.0000000001
 40
0.0
 40
0.0
 40
0.0
 40
0.0
 40
0.25
 40
0.25
 40
0.25
 40
0.25
 40
0.5
 40
0.5
 40
0.5
 40
0.5
 40
1.0
 40
1.0
 40
1.0
 40
1.0
 10
3.40242
 20
-7.46114
 30
0.0
 10
3.40242
 20
-7.46114
 30
0.0
 10
3.35162
 20
-7.13094
 30
0.0
 10
3.35162
 20
-7.13094
 30
0.0
 10
3.35162
 20
-7.13094
 30
0.0
 10
3.35162
 20
-7.13094
 30
0.0
 10
3.45322
 20
-7.13094
 30
0.0
 10
3.45322
 20
-7.13094
 30
0.0
 10
3.45322
 20
-7.13094
 30
0.0
 10
3.45322
 20
-7.13094
 30
0.0
 10
3.40242
 20
-7.46114
 30
0.0
 10
3.40242
 20
-7.46114
 30
0.0
  0
SPLINE
  5
EC
330
1F
100
AcDbEntity
  8
Warstwa 1
100
AcDbSpline
210
0.0
220
0.0
230
1.0
 70
    11
 71
     3
 72
    16
 73
    12
 74
     0
 42
0.0000000001
 43
0.0000000001
 40
0.0
 40
0.0
 40
0.0
 40
0.0
 40
0.25
 40
0.25
 40
0.25
 40
0.25
 40
0.5
 40
0.5
 40
0.5
 40
0.5
 40
1.0
 40
1.0
 40
1.0
 40
1.0
 10
-7.97873
 20
10.53072
 30
0.0
 10
-7.97873
 20
10.53072
 30
0.0
 10
-7.92793
 20
10.20052
 30
0.0
 10
-7.92793
 20
10.20052
 30
0.0
 10
-7.92793
 20
10.20052
 30
0.0
 10
-7.92793
 20
10.20052
 30
0.0
 10
-8.02953
 20
10.20052
 30
0.0
 10
-8.02953
 20
10.20052
 30
0.0
 10
-8.02953
 20
10.20052
 30
0.0
 10
-8.02953
 20
10.20052
 30
0.0
 10
-7.97873
 20
10.53072
 30
0.0
 10
-7.97873
 20
10.53072
 30
0.0
  0
SPLINE
  5
ED
330
1F
100
AcDbEntity
  8
Warstwa 1
100
AcDbSpline
210
0.0
220
0.0
230
1.0
 70
    11
 71
     3
 72
    16
 73
    12
 74
     0
 42
0.0000000001
 43
0.0000000001
 40
0.0
 40
0.0
 40
0.0
 40
0.0
 40
0.25
 40
0.25
 40
0.25
 40
0.25
 40
0.5
 40
0.5
 40
0.5
 40
0.5
 40
1.0
 40
1.0
 40
1.0
 40
1.0
 10
-7.97873
 20
9.30072
 30
0.0
 10
-7.97873
 20
9.30072
 30
0.0
 10
-8.02953
 20
9.63092
 30
0.0
 10
-8.02953
 20
9.63092
 30
0.0
 10
-8.02953
 20
9.63092
 30
0.0
 10
-8.02953
 20
9.63092
 30
0.0
 10
-7.92793
 20
9.63092
 30
0.0
 10
-7.92793
 20
9.63092
 30
0.0
 10
-7.92793
 20
9.63092
 30
0.0
 10
-7.92793
 20
9.63092
 30
0.0
 10
-7.97873
 20
9.30072
 30
0.0
 10
-7.97873
 20
9.30072
 30
0.0
  0
SPLINE
  5
EE
330
1F
100
AcDbEntity
  8
Warstwa 1
100
AcDbSpline
210
0.0
220
0.0
230
1.0
 70
    11
 71
     3
 72
    88
 73
    84
 74
     0
 42
0.0000000001
 43
0.0000000001
 40
0.0
 40
0.0
 40
0.0
 40
0.0
 40
0.0454545454545455
 40
0.0454545454545455
 40
0.0454545454545455
 40
0.0454545454545455
 40
0.0909090909090909
 40
0.0909090909090909
 40
0.0909090909090909
 40
0.0909090909090909
 40
0.1363636363636364
 40
0.1363636363636364
 40
0.1363636363636364
 40
0.1363636363636364
 40
0.1818181818181818
 40
0.1818181818181818
 40
0.1818181818181818
 40
0.1818181818181818
 40
0.2272727272727273
 40
0.2272727272727273
 40
0.2272727272727273
 40
0.2272727272727273
 40
0.2727272727272727
 40
0.2727272727272727
 40
0.2727272727272727
 40
0.2727272727272727
 40
0.3181818181818182
 40
0.3181818181818182
 40
0.3181818181818182
 40
0.3181818181818182
 40
0.3636363636363636
 40
0.3636363636363636
 40
0.3636363636363636
 40
0.3636363636363636
 40
0.4090909090909091
 40
0.4090909090909091
 40
0.4090909090909091
 40
0.4090909090909091
 40
0.4545454545454545
 40
0.4545454545454545
 40
0.4545454545454545
 40
0.4545454545454545
 40
0.5
 40
0.5
 40
0.5
 40
0.5
 40
0.5454545454545454
 40
0.5454545454545454
 40
0.5454545454545454
 40
0.5454545454545454
 40
0.5909090909090909
 40
0.5909090909090909
 40
0.5909090909090909
 40
0.5909090909090909
 40
0.6363636363636364
 40
0.6363636363636364
 40
0.6363636363636364
 40
0.6363636363636364
 40
0.6818181818181818
 40
0.6818181818181818
 40
0.6818181818181818
 40
0.6818181818181818
 40
0.7272727272727273
 40
0.7272727272727273
 40
0.7272727272727273
 40
0.7272727272727273
 40
0.7727272727272727
 40
0.7727272727272727
 40
0.7727272727272727
 40
0.7727272727272727
 40
0.8181818181818182
 40
0.8181818181818182
 40
0.8181818181818182
 40
0.8181818181818182
 40
0.8636363636363636
 40
0.8636363636363636
 40
0.8636363636363636
 40
0.8636363636363636
 40
0.9090909090909091
 40
0.9090909090909091
 40
0.9090909090909091
 40
0.9090909090909091
 40
1.0
 40
1.0
 40
1.0
 40
1.0
 10
-7.36539
 20
-12.10144
 30
0.0
 10
-7.36539
 20
-12.10144
 30
0.0
 10
-7.35944
 20
-12.23613
 30
0.0
 10
-7.35944
 20
-12.23613
 30
0.0
 10
-7.35944
 20
-12.23613
 30
0.0
 10
-7.28208
 20
-12.26139
 30
0.0
 10
-2.80097
 20
-12.24455
 30
0.0
 10
-2.29513
 20
-12.24455
 30
0.0
 10
-2.29513
 20
-12.24455
 30
0.0
 10
-2.01543
 20
-12.24455
 30
0.0
 10
-1.72978
 20
-12.24455
 30
0.0
 10
-1.45009
 20
-12.24455
 30
0.0
 10
-1.45009
 20
-12.24455
 30
0.0
 10
-1.33106
 20
-12.24455
 30
0.0
 10
-0.6586
 20
-12.2698
 30
0.0
 10
-0.61099
 20
-12.23613
 30
0.0
 10
-0.61099
 20
-12.23613
 30
0.0
 10
-0.58124
 20
-12.20246
 30
0.0
 10
-0.59314
 20
-12.16037
 30
0.0
 10
-0.59314
 20
-12.10144
 30
0.0
 10
-0.59314
 20
-12.10144
 30
0.0
 10
-0.59314
 20
-12.10144
 30
0.0
 10
-0.3551
 20
-12.09302
 30
0.0
 10
-0.3551
 20
-12.09302
 30
0.0
 10
-0.3551
 20
-12.09302
 30
0.0
 10
-0.33129
 20
-12.01726
 30
0.0
 10
-0.34915
 20
-10.03895
 30
0.0
 10
-0.34915
 20
-9.77799
 30
0.0
 10
-0.34915
 20
-9.77799
 30
0.0
 10
-0.34915
 20
-9.0035
 30
0.0
 10
-0.34915
 20
-8.22902
 30
0.0
 10
-0.34915
 20
-7.45453
 30
0.0
 10
-0.34915
 20
-7.45453
 30
0.0
 10
-0.34915
 20
-7.36193
 30
0.0
 10
-0.3432
 20
-7.26091
 30
0.0
 10
-0.34915
 20
-7.15989
 30
0.0
 10
-0.34915
 20
-7.15989
 30
0.0
 10
-0.34915
 20
-7.10097
 30
0.0
 10
-0.36105
 20
-7.10938
 30
0.0
 10
-0.367
 20
-7.04204
 30
0.0
 10
-0.367
 20
-7.04204
 30
0.0
 10
-0.367
 20
-6.99995
 30
0.0
 10
-0.3551
 20
-6.94102
 30
0.0
 10
-0.37295
 20
-6.90735
 30
0.0
 10
-0.37295
 20
-6.90735
 30
0.0
 10
-0.40271
 20
-6.84842
 30
0.0
 10
-0.61099
 20
-6.70531
 30
0.0
 10
-0.70621
 20
-6.6548
 30
0.0
 10
-0.70621
 20
-6.6548
 30
0.0
 10
-1.03947
 20
-6.50327
 30
0.0
 10
-1.38462
 20
-6.57903
 30
0.0
 10
-1.75954
 20
-6.55378
 30
0.0
 10
-1.75954
 20
-6.55378
 30
0.0
 10
-2.02138
 20
-6.52852
 30
0.0
 10
-3.78883
 20
-6.54536
 30
0.0
 10
-4.09234
 20
-6.54536
 30
0.0
 10
-4.09234
 20
-6.54536
 30
0.0
 10
-4.87192
 20
-6.54536
 30
0.0
 10
-5.64555
 20
-6.55378
 30
0.0
 10
-6.41918
 20
-6.55378
 30
0.0
 10
-6.41918
 20
-6.55378
 30
0.0
 10
-6.93692
 20
-6.55378
 30
0.0
 10
-7.19877
 20
-6.54536
 30
0.0
 10
-7.54988
 20
-6.86525
 30
0.0
 10
-7.54988
 20
-6.86525
 30
0.0
 10
-7.63319
 20
-6.94102
 30
0.0
 10
-7.57368
 20
-6.99995
 30
0.0
 10
-7.60343
 20
-7.10938
 30
0.0
 10
-7.60343
 20
-7.10938
 30
0.0
 10
-7.62724
 20
-7.20199
 30
0.0
 10
-7.60939
 20
-10.62824
 30
0.0
 10
-7.60939
 20
-11.17543
 30
0.0
 10
-7.60939
 20
-11.17543
 30
0.0
 10
-7.60939
 20
-11.36905
 30
0.0
 10
-7.60939
 20
-11.56267
 30
0.0
 10
-7.60939
 20
-11.75629
 30
0.0
 10
-7.60939
 20
-11.75629
 30
0.0
 10
-7.60939
 20
-11.84047
 30
0.0
 10
-7.62129
 20
-11.96675
 30
0.0
 10
-7.61534
 20
-12.04251
 30
0.0
 10
-7.61534
 20
-12.04251
 30
0.0
 10
-7.60343
 20
-12.12669
 30
0.0
 10
-7.55583
 20
-12.0846
 30
0.0
 10
-7.36539
 20
-12.10144
 30
0.0
  0
SPLINE
  5
EF
330
1F
100
AcDbEntity
  8
Warstwa 1
 62
     7
100
AcDbSpline
210
0.0
220
0.0
230
1.0
 70
    11
 71
     3
 72
    24
 73
    20
 74
     0
 42
0.0000000001
 43
0.0000000001
 40
0.0
 40
0.0
 40
0.0
 40
0.0
 40
0.1666666666666667
 40
0.1666666666666667
 40
0.1666666666666667
 40
0.1666666666666667
 40
0.3333333333333333
 40
0.3333333333333333
 40
0.3333333333333333
 40
0.3333333333333333
 40
0.5
 40
0.5
 40
0.5
 40
0.5
 40
0.6666666666666666
 40
0.6666666666666666
 40
0.6666666666666666
 40
0.6666666666666666
 40
1.0
 40
1.0
 40
1.0
 40
1.0
 10
-7.33669
 20
-12.22123
 30
0.0
 10
-7.33669
 20
-12.22123
 30
0.0
 10
-0.63522
 20
-12.22965
 30
0.0
 10
-0.63522
 20
-12.22965
 30
0.0
 10
-0.63522
 20
-12.22965
 30
0.0
 10
-0.63522
 20
-12.22965
 30
0.0
 10
-0.63522
 20
-12.09494
 30
0.0
 10
-0.63522
 20
-12.09494
 30
0.0
 10
-0.63522
 20
-12.09494
 30
0.0
 10
-0.63522
 20
-12.09494
 30
0.0
 10
-6.90818
 20
-12.09494
 30
0.0
 10
-6.90818
 20
-12.09494
 30
0.0
 10
-6.90818
 20
-12.09494
 30
0.0
 10
-7.03316
 20
-12.09494
 30
0.0
 10
-7.20576
 20
-12.09494
 30
0.0
 10
-7.33074
 20
-12.09494
 30
0.0
 10
-7.33074
 20
-12.09494
 30
0.0
 10
-7.33074
 20
-12.09494
 30
0.0
 10
-7.33669
 20
-12.22123
 30
0.0
 10
-7.33669
 20
-12.22123
 30
0.0
  0
SPLINE
  5
F0
330
1F
100
AcDbEntity
  8
Warstwa 1
 62
     7
100
AcDbSpline
210
0.0
220
0.0
230
1.0
 70
    11
 71
     3
 72
    76
 73
    72
 74
     0
 42
0.0000000001
 43
0.0000000001
 40
0.0
 40
0.0
 40
0.0
 40
0.0
 40
0.0526315789473684
 40
0.0526315789473684
 40
0.0526315789473684
 40
0.0526315789473684
 40
0.1052631578947368
 40
0.1052631578947368
 40
0.1052631578947368
 40
0.1052631578947368
 40
0.1578947368421053
 40
0.1578947368421053
 40
0.1578947368421053
 40
0.1578947368421053
 40
0.2105263157894737
 40
0.2105263157894737
 40
0.2105263157894737
 40
0.2105263157894737
 40
0.2631578947368421
 40
0.2631578947368421
 40
0.2631578947368421
 40
0.2631578947368421
 40
0.3157894736842105
 40
0.3157894736842105
 40
0.3157894736842105
 40
0.3157894736842105
 40
0.3684210526315789
 40
0.3684210526315789
 40
0.3684210526315789
 40
0.3684210526315789
 40
0.4210526315789473
 40
0.4210526315789473
 40
0.4210526315789473
 40
0.4210526315789473
 40
0.4736842105263158
 40
0.4736842105263158
 40
0.4736842105263158
 40
0.4736842105263158
 40
0.5263157894736842
 40
0.5263157894736842
 40
0.5263157894736842
 40
0.5263157894736842
 40
0.5789473684210527
 40
0.5789473684210527
 40
0.5789473684210527
 40
0.5789473684210527
 40
0.631578947368421
 40
0.631578947368421
 40
0.631578947368421
 40
0.631578947368421
 40
0.6842105263157895
 40
0.6842105263157895
 40
0.6842105263157895
 40
0.6842105263157895
 40
0.7368421052631579
 40
0.7368421052631579
 40
0.7368421052631579
 40
0.7368421052631579
 40
0.7894736842105263
 40
0.7894736842105263
 40
0.7894736842105263
 40
0.7894736842105263
 40
0.8421052631578947
 40
0.8421052631578947
 40
0.8421052631578947
 40
0.8421052631578947
 40
0.8947368421052632
 40
0.8947368421052632
 40
0.8947368421052632
 40
0.8947368421052632
 40
1.0
 40
1.0
 40
1.0
 40
1.0
 10
-0.3986
 20
-7.11294
 30
0.0
 10
-0.43508
 20
-6.95622
 30
0.0
 10
-0.37482
 20
-6.96926
 30
0.0
 10
-0.47261
 20
-6.88761
 30
0.0
 10
-0.47261
 20
-6.88761
 30
0.0
 10
-0.77741
 20
-6.61537
 30
0.0
 10
-1.09392
 20
-6.61537
 30
0.0
 10
-1.53353
 20
-6.61537
 30
0.0
 10
-1.53353
 20
-6.61537
 30
0.0
 10
-1.53353
 20
-6.61537
 30
0.0
 10
-6.05268
 20
-6.6078
 30
0.0
 10
-6.05268
 20
-6.6078
 30
0.0
 10
-6.05268
 20
-6.6078
 30
0.0
 10
-6.29886
 20
-6.6078
 30
0.0
 10
-6.71502
 20
-6.60024
 30
0.0
 10
-6.94361
 20
-6.63806
 30
0.0
 10
-6.94361
 20
-6.63806
 30
0.0
 10
-7.07257
 20
-6.66075
 30
0.0
 10
-7.16634
 20
-6.691
 30
0.0
 10
-7.27185
 20
-6.74392
 30
0.0
 10
-7.27185
 20
-6.74392
 30
0.0
 10
-7.33633
 20
-6.77418
 30
0.0
 10
-7.50045
 20
-6.88006
 30
0.0
 10
-7.5239
 20
-6.92545
 30
0.0
 10
-7.5239
 20
-6.92545
 30
0.0
 10
-7.54734
 20
-6.96324
 30
0.0
 10
-7.52976
 20
-7.06156
 30
0.0
 10
-7.54148
 20
-7.10693
 30
0.0
 10
-7.54148
 20
-7.10693
 30
0.0
 10
-7.54148
 20
-7.10693
 30
0.0
 10
-7.5431
 20
-7.11282
 30
0.0
 10
-7.5431
 20
-7.11282
 30
0.0
 10
-7.5431
 20
-7.11282
 30
0.0
 10
-7.49425
 20
-7.11213
 30
0.0
 10
-7.44717
 20
-7.11123
 30
0.0
 10
-7.4057
 20
-7.11103
 30
0.0
 10
-7.4057
 20
-7.11103
 30
0.0
 10
-7.4057
 20
-7.11103
 30
0.0
 10
-7.38758
 20
-7.11116
 30
0.0
 10
-7.38758
 20
-7.11116
 30
0.0
 10
-7.38758
 20
-7.11116
 30
0.0
 10
-7.23973
 20
-7.12103
 30
0.0
 10
-7.09185
 20
-7.12152
 30
0.0
 10
-6.93841
 20
-7.12155
 30
0.0
 10
-6.93841
 20
-7.12155
 30
0.0
 10
-6.93841
 20
-7.12155
 30
0.0
 10
-6.93572
 20
-7.12155
 30
0.0
 10
-6.93572
 20
-7.12155
 30
0.0
 10
-6.93572
 20
-7.12155
 30
0.0
 10
-6.93572
 20
-7.12155
 30
0.0
 10
-6.91562
 20
-7.12155
 30
0.0
 10
-6.91562
 20
-7.12155
 30
0.0
 10
-6.91562
 20
-7.12155
 30
0.0
 10
-6.91562
 20
-7.12155
 30
0.0
 10
-1.01444
 20
-7.12155
 30
0.0
 10
-1.01444
 20
-7.12155
 30
0.0
 10
-1.01444
 20
-7.12155
 30
0.0
 10
-1.01444
 20
-7.12155
 30
0.0
 10
-1.01176
 20
-7.12155
 30
0.0
 10
-1.01176
 20
-7.12155
 30
0.0
 10
-1.01176
 20
-7.12155
 30
0.0
 10
-0.85833
 20
-7.12151
 30
0.0
 10
-0.71043
 20
-7.12105
 30
0.0
 10
-0.56258
 20
-7.11116
 30
0.0
 10
-0.56258
 20
-7.11116
 30
0.0
 10
-0.56258
 20
-7.11116
 30
0.0
 10
-0.54447
 20
-7.11103
 30
0.0
 10
-0.54447
 20
-7.11103
 30
0.0
 10
-0.54447
 20
-7.11103
 30
0.0
 10
-0.5006
 20
-7.11124
 30
0.0
 10
-0.45047
 20
-7.11223
 30
0.0
 10
-0.3986
 20
-7.11294
 30
0.0
  0
SPLINE
  5
F1
330
1F
100
AcDbEntity
  8
Warstwa 1
 62
     7
100
AcDbSpline
210
0.0
220
0.0
230
1.0
 70
    11
 71
     3
 72
    40
 73
    36
 74
     0
 42
0.0000000001
 43
0.0000000001
 40
0.0
 40
0.0
 40
0.0
 40
0.0
 40
0.1
 40
0.1
 40
0.1
 40
0.1
 40
0.2
 40
0.2
 40
0.2
 40
0.2
 40
0.3
 40
0.3
 40
0.3
 40
0.3
 40
0.4
 40
0.4
 40
0.4
 40
0.4
 40
0.5
 40
0.5
 40
0.5
 40
0.5
 40
0.6
 40
0.6
 40
0.6
 40
0.6
 40
0.7
 40
0.7
 40
0.7
 40
0.7
 40
0.8
 40
0.8
 40
0.8
 40
0.8
 40
1.0
 40
1.0
 40
1.0
 40
1.0
 10
-0.51618
 20
-7.70843
 30
0.0
 10
-0.36144
 20
-7.81788
 30
0.0
 10
-0.36144
 20
-7.94417
 30
0.0
 10
-0.51618
 20
-8.03679
 30
0.0
 10
-0.51618
 20
-8.03679
 30
0.0
 10
-0.51618
 20
-8.03679
 30
0.0
 10
-0.51618
 20
-11.18564
 30
0.0
 10
-0.51618
 20
-11.18564
 30
0.0
 10
-0.51618
 20
-11.18564
 30
0.0
 10
-0.45667
 20
-11.21932
 30
0.0
 10
-0.4031
 20
-11.26142
 30
0.0
 10
-0.4031
 20
-11.35403
 30
0.0
 10
-0.4031
 20
-11.35403
 30
0.0
 10
-0.4031
 20
-11.45506
 30
0.0
 10
-0.46262
 20
-11.48032
 30
0.0
 10
-0.51618
 20
-11.52242
 30
0.0
 10
-0.51618
 20
-11.52242
 30
0.0
 10
-0.51618
 20
-11.52242
 30
0.0
 10
-0.51618
 20
-12.00232
 30
0.0
 10
-0.51618
 20
-12.00232
 30
0.0
 10
-0.51618
 20
-12.00232
 30
0.0
 10
-0.51618
 20
-12.00232
 30
0.0
 10
-0.4031
 20
-12.00232
 30
0.0
 10
-0.4031
 20
-12.00232
 30
0.0
 10
-0.4031
 20
-12.00232
 30
0.0
 10
-0.4031
 20
-12.00232
 30
0.0
 10
-0.4031
 20
-7.22852
 30
0.0
 10
-0.4031
 20
-7.22852
 30
0.0
 10
-0.4031
 20
-7.22852
 30
0.0
 10
-0.4031
 20
-7.22852
 30
0.0
 10
-0.51023
 20
-7.22852
 30
0.0
 10
-0.51023
 20
-7.22852
 30
0.0
 10
-0.51023
 20
-7.22852
 30
0.0
 10
-0.51023
 20
-7.22852
 30
0.0
 10
-0.51618
 20
-7.70843
 30
0.0
 10
-0.51618
 20
-7.70843
 30
0.0
  0
SPLINE
  5
F2
330
1F
100
AcDbEntity
  8
Warstwa 1
 62
     7
100
AcDbSpline
210
0.0
220
0.0
230
1.0
 70
    11
 71
     3
 72
    84
 73
    80
 74
     0
 42
0.0000000001
 43
0.0000000001
 40
0.0
 40
0.0
 40
0.0
 40
0.0
 40
0.0476190476190476
 40
0.0476190476190476
 40
0.0476190476190476
 40
0.0476190476190476
 40
0.0952380952380952
 40
0.0952380952380952
 40
0.0952380952380952
 40
0.0952380952380952
 40
0.1428571428571428
 40
0.1428571428571428
 40
0.1428571428571428
 40
0.1428571428571428
 40
0.1904761904761905
 40
0.1904761904761905
 40
0.1904761904761905
 40
0.1904761904761905
 40
0.2380952380952381
 40
0.2380952380952381
 40
0.2380952380952381
 40
0.2380952380952381
 40
0.2857142857142857
 40
0.2857142857142857
 40
0.2857142857142857
 40
0.2857142857142857
 40
0.3333333333333333
 40
0.3333333333333333
 40
0.3333333333333333
 40
0.3333333333333333
 40
0.3809523809523809
 40
0.3809523809523809
 40
0.3809523809523809
 40
0.3809523809523809
 40
0.4285714285714285
 40
0.4285714285714285
 40
0.4285714285714285
 40
0.4285714285714285
 40
0.4761904761904762
 40
0.4761904761904762
 40
0.4761904761904762
 40
0.4761904761904762
 40
0.5238095238095238
 40
0.5238095238095238
 40
0.5238095238095238
 40
0.5238095238095238
 40
0.5714285714285714
 40
0.5714285714285714
 40
0.5714285714285714
 40
0.5714285714285714
 40
0.6190476190476191
 40
0.6190476190476191
 40
0.6190476190476191
 40
0.6190476190476191
 40
0.6666666666666666
 40
0.6666666666666666
 40
0.6666666666666666
 40
0.6666666666666666
 40
0.7142857142857143
 40
0.7142857142857143
 40
0.7142857142857143
 40
0.7142857142857143
 40
0.7619047619047619
 40
0.7619047619047619
 40
0.7619047619047619
 40
0.7619047619047619
 40
0.8095238095238095
 40
0.8095238095238095
 40
0.8095238095238095
 40
0.8095238095238095
 40
0.8571428571428571
 40
0.8571428571428571
 40
0.8571428571428571
 40
0.8571428571428571
 40
0.9047619047619048
 40
0.9047619047619048
 40
0.9047619047619048
 40
0.9047619047619048
 40
1.0
 40
1.0
 40
1.0
 40
1.0
 10
-7.40811
 20
-8.01995
 30
0.0
 10
-7.39026
 20
-9.04711
 30
0.0
 10
-7.40216
 20
-10.16689
 30
0.0
 10
-7.40216
 20
-11.2109
 30
0.0
 10
-7.40216
 20
-11.2109
 30
0.0
 10
-7.43787
 20
-11.21932
 30
0.0
 10
-7.51524
 20
-11.27826
 30
0.0
 10
-7.50929
 20
-11.35403
 30
0.0
 10
-7.50929
 20
-11.35403
 30
0.0
 10
-7.50929
 20
-11.45506
 30
0.0
 10
-7.45572
 20
-11.44664
 30
0.0
 10
-7.40811
 20
-11.49716
 30
0.0
 10
-7.40811
 20
-11.49716
 30
0.0
 10
-7.40811
 20
-11.49716
 30
0.0
 10
-7.40811
 20
-11.74974
 30
0.0
 10
-7.40811
 20
-11.74974
 30
0.0
 10
-7.40811
 20
-11.74974
 30
0.0
 10
-7.40811
 20
-11.85077
 30
0.0
 10
-7.39026
 20
-11.97707
 30
0.0
 10
-7.42597
 20
-12.05284
 30
0.0
 10
-7.42597
 20
-12.05284
 30
0.0
 10
-6.95579
 20
-12.06126
 30
0.0
 10
-6.37849
 20
-12.05284
 30
0.0
 10
-5.89641
 20
-12.05284
 30
0.0
 10
-5.89641
 20
-12.05284
 30
0.0
 10
-5.89641
 20
-12.05284
 30
0.0
 10
-0.53999
 20
-12.05284
 30
0.0
 10
-0.53999
 20
-12.05284
 30
0.0
 10
-0.53999
 20
-12.05284
 30
0.0
 10
-0.5757
 20
-11.96865
 30
0.0
 10
-0.5638
 20
-11.90129
 30
0.0
 10
-0.5638
 20
-11.78342
 30
0.0
 10
-0.5638
 20
-11.78342
 30
0.0
 10
-0.5638
 20
-11.71606
 30
0.0
 10
-0.5757
 20
-11.5561
 30
0.0
 10
-0.55189
 20
-11.50558
 30
0.0
 10
-0.55189
 20
-11.50558
 30
0.0
 10
-0.53404
 20
-11.45506
 30
0.0
 10
-0.45072
 20
-11.46348
 30
0.0
 10
-0.45072
 20
-11.35403
 30
0.0
 10
-0.45072
 20
-11.35403
 30
0.0
 10
-0.45072
 20
-11.26142
 30
0.0
 10
-0.51618
 20
-11.253
 30
0.0
 10
-0.55785
 20
-11.2109
 30
0.0
 10
-0.55785
 20
-11.2109
 30
0.0
 10
-0.55785
 20
-11.2109
 30
0.0
 10
-0.5638
 20
-8.01995
 30
0.0
 10
-0.5638
 20
-8.01995
 30
0.0
 10
-0.5638
 20
-8.01995
 30
0.0
 10
-0.52214
 20
-7.98627
 30
0.0
 10
-0.45072
 20
-7.96101
 30
0.0
 10
-0.45072
 20
-7.8684
 30
0.0
 10
-0.45072
 20
-7.8684
 30
0.0
 10
-0.45072
 20
-7.75895
 30
0.0
 10
-0.54594
 20
-7.77579
 30
0.0
 10
-0.5638
 20
-7.71685
 30
0.0
 10
-0.5638
 20
-7.71685
 30
0.0
 10
-0.5638
 20
-7.71685
 30
0.0
 10
-0.5638
 20
-7.3043
 30
0.0
 10
-0.5638
 20
-7.3043
 30
0.0
 10
-0.5638
 20
-7.3043
 30
0.0
 10
-0.5638
 20
-7.22852
 30
0.0
 10
-0.55785
 20
-7.2201
 30
0.0
 10
-0.53999
 20
-7.17801
 30
0.0
 10
-0.53999
 20
-7.17801
 30
0.0
 10
-0.53999
 20
-7.17801
 30
0.0
 10
-7.42001
 20
-7.17801
 30
0.0
 10
-7.42001
 20
-7.17801
 30
0.0
 10
-7.42001
 20
-7.17801
 30
0.0
 10
-7.39621
 20
-7.24536
 30
0.0
 10
-7.39621
 20
-7.6074
 30
0.0
 10
-7.40216
 20
-7.70001
 30
0.0
 10
-7.40216
 20
-7.70001
 30
0.0
 10
-7.41406
 20
-7.7842
 30
0.0
 10
-7.50334
 20
-7.74211
 30
0.0
 10
-7.50929
 20
-7.85998
 30
0.0
 10
-7.50929
 20
-7.85998
 30
0.0
 10
-7.52119
 20
-7.97785
 30
0.0
 10
-7.44382
 20
-7.96943
 30
0.0
 10
-7.40811
 20
-8.01995
 30
0.0
  0
SPLINE
  5
F3
330
1F
100
AcDbEntity
  8
Warstwa 1
 62
     7
100
AcDbSpline
210
0.0
220
0.0
230
1.0
 70
    11
 71
     3
 72
    44
 73
    40
 74
     0
 42
0.0000000001
 43
0.0000000001
 40
0.0
 40
0.0
 40
0.0
 40
0.0
 40
0.0909090909090909
 40
0.0909090909090909
 40
0.0909090909090909
 40
0.0909090909090909
 40
0.1818181818181818
 40
0.1818181818181818
 40
0.1818181818181818
 40
0.1818181818181818
 40
0.2727272727272727
 40
0.2727272727272727
 40
0.2727272727272727
 40
0.2727272727272727
 40
0.3636363636363636
 40
0.3636363636363636
 40
0.3636363636363636
 40
0.3636363636363636
 40
0.4545454545454545
 40
0.4545454545454545
 40
0.4545454545454545
 40
0.4545454545454545
 40
0.5454545454545454
 40
0.5454545454545454
 40
0.5454545454545454
 40
0.5454545454545454
 40
0.6363636363636364
 40
0.6363636363636364
 40
0.6363636363636364
 40
0.6363636363636364
 40
0.7272727272727273
 40
0.7272727272727273
 40
0.7272727272727273
 40
0.7272727272727273
 40
0.8181818181818182
 40
0.8181818181818182
 40
0.8181818181818182
 40
0.8181818181818182
 40
1.0
 40
1.0
 40
1.0
 40
1.0
 10
-7.5688
 20
-12.00232
 30
0.0
 10
-7.5688
 20
-12.00232
 30
0.0
 10
-7.44977
 20
-12.00232
 30
0.0
 10
-7.44977
 20
-12.00232
 30
0.0
 10
-7.44977
 20
-12.00232
 30
0.0
 10
-7.44977
 20
-12.00232
 30
0.0
 10
-7.44977
 20
-11.53926
 30
0.0
 10
-7.44977
 20
-11.53926
 30
0.0
 10
-7.44977
 20
-11.53926
 30
0.0
 10
-7.45572
 20
-11.48874
 30
0.0
 10
-7.55095
 20
-11.48032
 30
0.0
 10
-7.5569
 20
-11.37087
 30
0.0
 10
-7.5569
 20
-11.37087
 30
0.0
 10
-7.56285
 20
-11.27826
 30
0.0
 10
-7.50929
 20
-11.2109
 30
0.0
 10
-7.44382
 20
-11.19406
 30
0.0
 10
-7.44382
 20
-11.19406
 30
0.0
 10
-7.44382
 20
-11.19406
 30
0.0
 10
-7.44977
 20
-8.03679
 30
0.0
 10
-7.44977
 20
-8.03679
 30
0.0
 10
-7.44977
 20
-8.03679
 30
0.0
 10
-7.56285
 20
-7.99469
 30
0.0
 10
-7.58666
 20
-7.85998
 30
0.0
 10
-7.52119
 20
-7.76737
 30
0.0
 10
-7.52119
 20
-7.76737
 30
0.0
 10
-7.49143
 20
-7.71685
 30
0.0
 10
-7.47953
 20
-7.73369
 30
0.0
 10
-7.44977
 20
-7.70843
 30
0.0
 10
-7.44977
 20
-7.70843
 30
0.0
 10
-7.44977
 20
-7.70843
 30
0.0
 10
-7.44977
 20
-7.22852
 30
0.0
 10
-7.44977
 20
-7.22852
 30
0.0
 10
-7.44977
 20
-7.22852
 30
0.0
 10
-7.44977
 20
-7.22852
 30
0.0
 10
-7.56285
 20
-7.22852
 30
0.0
 10
-7.56285
 20
-7.22852
 30
0.0
 10
-7.56285
 20
-7.22852
 30
0.0
 10
-7.56285
 20
-7.22852
 30
0.0
 10
-7.5688
 20
-12.00232
 30
0.0
 10
-7.5688
 20
-12.00232
 30
0.0
  0
SPLINE
  5
F4
330
1F
100
AcDbEntity
  8
Warstwa 1
100
AcDbSpline
210
0.0
220
0.0
230
1.0
 70
    11
 71
     3
 72
   144
 73
   140
 74
     0
 42
0.0000000001
 43
0.0000000001
 40
0.0
 40
0.0
 40
0.0
 40
0.0
 40
0.0277777777777778
 40
0.0277777777777778
 40
0.0277777777777778
 40
0.0277777777777778
 40
0.0555555555555556
 40
0.0555555555555556
 40
0.0555555555555556
 40
0.0555555555555556
 40
0.0833333333333333
 40
0.0833333333333333
 40
0.0833333333333333
 40
0.0833333333333333
 40
0.1111111111111111
 40
0.1111111111111111
 40
0.1111111111111111
 40
0.1111111111111111
 40
0.1388888888888889
 40
0.1388888888888889
 40
0.1388888888888889
 40
0.1388888888888889
 40
0.1666666666666667
 40
0.1666666666666667
 40
0.1666666666666667
 40
0.1666666666666667
 40
0.1944444444444444
 40
0.1944444444444444
 40
0.1944444444444444
 40
0.1944444444444444
 40
0.2222222222222222
 40
0.2222222222222222
 40
0.2222222222222222
 40
0.2222222222222222
 40
0.25
 40
0.25
 40
0.25
 40
0.25
 40
0.2777777777777778
 40
0.2777777777777778
 40
0.2777777777777778
 40
0.2777777777777778
 40
0.3055555555555556
 40
0.3055555555555556
 40
0.3055555555555556
 40
0.3055555555555556
 40
0.3333333333333333
 40
0.3333333333333333
 40
0.3333333333333333
 40
0.3333333333333333
 40
0.3611111111111111
 40
0.3611111111111111
 40
0.3611111111111111
 40
0.3611111111111111
 40
0.3888888888888889
 40
0.3888888888888889
 40
0.3888888888888889
 40
0.3888888888888889
 40
0.4166666666666667
 40
0.4166666666666667
 40
0.4166666666666667
 40
0.4166666666666667
 40
0.4444444444444444
 40
0.4444444444444444
 40
0.4444444444444444
 40
0.4444444444444444
 40
0.4722222222222222
 40
0.4722222222222222
 40
0.4722222222222222
 40
0.4722222222222222
 40
0.5
 40
0.5
 40
0.5
 40
0.5
 40
0.5277777777777778
 40
0.5277777777777778
 40
0.5277777777777778
 40
0.5277777777777778
 40
0.5555555555555556
 40
0.5555555555555556
 40
0.5555555555555556
 40
0.5555555555555556
 40
0.5833333333333334
 40
0.5833333333333334
 40
0.5833333333333334
 40
0.5833333333333334
 40
0.6111111111111112
 40
0.6111111111111112
 40
0.6111111111111112
 40
0.6111111111111112
 40
0.6388888888888888
 40
0.6388888888888888
 40
0.6388888888888888
 40
0.6388888888888888
 40
0.6666666666666666
 40
0.6666666666666666
 40
0.6666666666666666
 40
0.6666666666666666
 40
0.6944444444444444
 40
0.6944444444444444
 40
0.6944444444444444
 40
0.6944444444444444
 40
0.7222222222222222
 40
0.7222222222222222
 40
0.7222222222222222
 40
0.7222222222222222
 40
0.75
 40
0.75
 40
0.75
 40
0.75
 40
0.7777777777777778
 40
0.7777777777777778
 40
0.7777777777777778
 40
0.7777777777777778
 40
0.8055555555555556
 40
0.8055555555555556
 40
0.8055555555555556
 40
0.8055555555555556
 40
0.8333333333333334
 40
0.8333333333333334
 40
0.8333333333333334
 40
0.8333333333333334
 40
0.8611111111111112
 40
0.8611111111111112
 40
0.8611111111111112
 40
0.8611111111111112
 40
0.8888888888888888
 40
0.8888888888888888
 40
0.8888888888888888
 40
0.8888888888888888
 40
0.9166666666666666
 40
0.9166666666666666
 40
0.9166666666666666
 40
0.9166666666666666
 40
0.9444444444444444
 40
0.9444444444444444
 40
0.9444444444444444
 40
0.9444444444444444
 40
1.0
 40
1.0
 40
1.0
 40
1.0
 10
2.74538
 20
0.21454
 30
0.0
 10
2.76323
 20
0.20612
 30
0.0
 10
2.76323
 20
0.24821
 30
0.0
 10
2.76323
 20
0.17245
 30
0.0
 10
2.76323
 20
0.17245
 30
0.0
 10
2.74538
 20
0.14719
 30
0.0
 10
2.76323
 20
0.16403
 30
0.0
 10
2.71562
 20
0.14719
 30
0.0
 10
2.71562
 20
0.14719
 30
0.0
 10
2.69182
 20
0.1051
 30
0.0
 10
2.70967
 20
-4.08721
 30
0.0
 10
2.70967
 20
-4.93746
 30
0.0
 10
2.70967
 20
-4.93746
 30
0.0
 10
2.70967
 20
-5.11425
 30
0.0
 10
2.62636
 20
-5.1395
 30
0.0
 10
3.20361
 20
-5.10583
 30
0.0
 10
3.20361
 20
-5.10583
 30
0.0
 10
3.22146
 20
-5.08057
 30
0.0
 10
3.22741
 20
-5.03848
 30
0.0
 10
3.23336
 20
-5.00481
 30
0.0
 10
3.23336
 20
-5.00481
 30
0.0
 10
3.23336
 20
-5.00481
 30
0.0
 10
3.23931
 20
-4.97114
 30
0.0
 10
3.23931
 20
-4.97114
 30
0.0
 10
3.23931
 20
-4.97114
 30
0.0
 10
3.24527
 20
-4.97955
 30
0.0
 10
3.24527
 20
-4.97114
 30
0.0
 10
3.25122
 20
-4.99639
 30
0.0
 10
3.25122
 20
-4.99639
 30
0.0
 10
3.25717
 20
-5.01323
 30
0.0
 10
3.25122
 20
-5.01323
 30
0.0
 10
3.25122
 20
-5.03006
 30
0.0
 10
3.25122
 20
-5.03006
 30
0.0
 10
3.25122
 20
-5.03006
 30
0.0
 10
3.26312
 20
-5.11425
 30
0.0
 10
3.26312
 20
-5.11425
 30
0.0
 10
3.26312
 20
-5.11425
 30
0.0
 10
3.4595
 20
-5.14792
 30
0.0
 10
4.25099
 20
-5.13108
 30
0.0
 10
4.50688
 20
-5.13108
 30
0.0
 10
4.50688
 20
-5.13108
 30
0.0
 10
4.92345
 20
-5.13108
 30
0.0
 10
5.34002
 20
-5.13108
 30
0.0
 10
5.75659
 20
-5.13108
 30
0.0
 10
5.75659
 20
-5.13108
 30
0.0
 10
6.17316
 20
-5.13108
 30
0.0
 10
6.58974
 20
-5.13108
 30
0.0
 10
7.00631
 20
-5.13108
 30
0.0
 10
7.00631
 20
-5.13108
 30
0.0
 10
7.19079
 20
-5.13108
 30
0.0
 10
8.1489
 20
-5.16476
 30
0.0
 10
8.23222
 20
-5.10583
 30
0.0
 10
8.23222
 20
-5.10583
 30
0.0
 10
8.23222
 20
-5.10583
 30
0.0
 10
8.23817
 20
-4.83644
 30
0.0
 10
8.23817
 20
-4.83644
 30
0.0
 10
8.23817
 20
-4.83644
 30
0.0
 10
8.23817
 20
-4.83644
 30
0.0
 10
8.39289
 20
-4.82802
 30
0.0
 10
8.39289
 20
-4.82802
 30
0.0
 10
8.39289
 20
-4.82802
 30
0.0
 10
8.4167
 20
-4.71859
 30
0.0
 10
8.39884
 20
1.61198
 30
0.0
 10
8.39884
 20
2.35279
 30
0.0
 10
8.39884
 20
2.35279
 30
0.0
 10
8.39884
 20
2.47065
 30
0.0
 10
8.41075
 20
2.73161
 30
0.0
 10
8.39289
 20
2.82421
 30
0.0
 10
8.39289
 20
2.82421
 30
0.0
 10
8.39289
 20
2.82421
 30
0.0
 10
8.27982
 20
2.83263
 30
0.0
 10
8.27982
 20
2.83263
 30
0.0
 10
8.27982
 20
2.83263
 30
0.0
 10
8.27387
 20
2.98416
 30
0.0
 10
8.25007
 20
2.99258
 30
0.0
 10
8.17866
 20
3.001
 30
0.0
 10
8.17866
 20
3.001
 30
0.0
 10
8.17866
 20
3.07676
 30
0.0
 10
8.19056
 20
3.36299
 30
0.0
 10
8.1489
 20
3.39666
 30
0.0
 10
8.1489
 20
3.39666
 30
0.0
 10
8.1251
 20
3.42191
 30
0.0
 10
6.6671
 20
3.40508
 30
0.0
 10
6.40525
 20
3.40508
 30
0.0
 10
6.40525
 20
3.40508
 30
0.0
 10
6.3636
 20
3.40508
 30
0.0
 10
6.32194
 20
3.40508
 30
0.0
 10
6.28028
 20
3.40508
 30
0.0
 10
6.28028
 20
3.40508
 30
0.0
 10
6.26243
 20
3.40508
 30
0.0
 10
6.23267
 20
3.40508
 30
0.0
 10
6.21482
 20
3.40508
 30
0.0
 10
6.21482
 20
3.40508
 30
0.0
 10
6.1077
 20
3.40508
 30
0.0
 10
6.12556
 20
3.33773
 30
0.0
 10
6.13151
 20
3.24513
 30
0.0
 10
6.13151
 20
3.24513
 30
0.0
 10
6.13151
 20
3.24513
 30
0.0
 10
5.36383
 20
3.24513
 30
0.0
 10
5.36383
 20
3.24513
 30
0.0
 10
5.36383
 20
3.24513
 30
0.0
 10
5.36978
 20
3.32931
 30
0.0
 10
5.38168
 20
3.32931
 30
0.0
 10
5.34597
 20
3.40508
 30
0.0
 10
5.34597
 20
3.40508
 30
0.0
 10
5.1972
 20
3.42191
 30
0.0
 10
3.39999
 20
3.4135
 30
0.0
 10
3.34643
 20
3.39666
 30
0.0
 10
3.34643
 20
3.39666
 30
0.0
 10
3.30478
 20
3.33773
 30
0.0
 10
3.32263
 20
3.31248
 30
0.0
 10
3.32858
 20
3.24513
 30
0.0
 10
3.32858
 20
3.24513
 30
0.0
 10
3.26312
 20
3.22829
 30
0.0
 10
2.93581
 20
3.24513
 30
0.0
 10
2.8406
 20
3.24513
 30
0.0
 10
2.8406
 20
3.24513
 30
0.0
 10
2.81679
 20
3.24513
 30
0.0
 10
2.82274
 20
3.27038
 30
0.0
 10
2.80489
 20
3.30406
 30
0.0
 10
2.80489
 20
3.30406
 30
0.0
 10
2.80489
 20
3.30406
 30
0.0
 10
2.70372
 20
3.29564
 30
0.0
 10
2.70372
 20
3.29564
 30
0.0
 10
2.70372
 20
3.29564
 30
0.0
 10
2.67992
 20
3.16095
 30
0.0
 10
2.69777
 20
2.68952
 30
0.0
 10
2.69777
 20
2.52116
 30
0.0
 10
2.69777
 20
2.52116
 30
0.0
 10
2.69777
 20
2.26019
 30
0.0
 10
2.69777
 20
1.99922
 30
0.0
 10
2.69777
 20
1.73825
 30
0.0
 10
2.69777
 20
1.73825
 30
0.0
 10
2.69777
 20
1.73825
 30
0.0
 10
2.69777
 20
0.36607
 30
0.0
 10
2.69777
 20
0.36607
 30
0.0
 10
2.69777
 20
0.36607
 30
0.0
 10
2.69777
 20
0.2903
 30
0.0
 10
2.67397
 20
0.22296
 30
0.0
 10
2.74538
 20
0.21454
 30
0.0
  0
SPLINE
  5
F5
330
1F
100
AcDbEntity
  8
Warstwa 1
100
AcDbSpline
210
0.0
220
0.0
230
1.0
 70
    11
 71
     3
 72
    88
 73
    84
 74
     0
 42
0.0000000001
 43
0.0000000001
 40
0.0
 40
0.0
 40
0.0
 40
0.0
 40
0.0454545454545455
 40
0.0454545454545455
 40
0.0454545454545455
 40
0.0454545454545455
 40
0.0909090909090909
 40
0.0909090909090909
 40
0.0909090909090909
 40
0.0909090909090909
 40
0.1363636363636364
 40
0.1363636363636364
 40
0.1363636363636364
 40
0.1363636363636364
 40
0.1818181818181818
 40
0.1818181818181818
 40
0.1818181818181818
 40
0.1818181818181818
 40
0.2272727272727273
 40
0.2272727272727273
 40
0.2272727272727273
 40
0.2272727272727273
 40
0.2727272727272727
 40
0.2727272727272727
 40
0.2727272727272727
 40
0.2727272727272727
 40
0.3181818181818182
 40
0.3181818181818182
 40
0.3181818181818182
 40
0.3181818181818182
 40
0.3636363636363636
 40
0.3636363636363636
 40
0.3636363636363636
 40
0.3636363636363636
 40
0.4090909090909091
 40
0.4090909090909091
 40
0.4090909090909091
 40
0.4090909090909091
 40
0.4545454545454545
 40
0.4545454545454545
 40
0.4545454545454545
 40
0.4545454545454545
 40
0.5
 40
0.5
 40
0.5
 40
0.5
 40
0.5454545454545454
 40
0.5454545454545454
 40
0.5454545454545454
 40
0.5454545454545454
 40
0.5909090909090909
 40
0.5909090909090909
 40
0.5909090909090909
 40
0.5909090909090909
 40
0.6363636363636364
 40
0.6363636363636364
 40
0.6363636363636364
 40
0.6363636363636364
 40
0.6818181818181818
 40
0.6818181818181818
 40
0.6818181818181818
 40
0.6818181818181818
 40
0.7272727272727273
 40
0.7272727272727273
 40
0.7272727272727273
 40
0.7272727272727273
 40
0.7727272727272727
 40
0.7727272727272727
 40
0.7727272727272727
 40
0.7727272727272727
 40
0.8181818181818182
 40
0.8181818181818182
 40
0.8181818181818182
 40
0.8181818181818182
 40
0.8636363636363636
 40
0.8636363636363636
 40
0.8636363636363636
 40
0.8636363636363636
 40
0.9090909090909091
 40
0.9090909090909091
 40
0.9090909090909091
 40
0.9090909090909091
 40
1.0
 40
1.0
 40
1.0
 40
1.0
 10
-7.35349
 20
10.5438
 30
0.0
 10
-7.35349
 20
10.5438
 30
0.0
 10
-7.36539
 20
10.42594
 30
0.0
 10
-7.36539
 20
10.42594
 30
0.0
 10
-7.36539
 20
10.42594
 30
0.0
 10
-7.44871
 20
10.42594
 30
0.0
 10
-7.39515
 20
10.40911
 30
0.0
 10
-7.54392
 20
10.40069
 30
0.0
 10
-7.54392
 20
10.40069
 30
0.0
 10
-7.55583
 20
10.40069
 30
0.0
 10
-7.56178
 20
10.40069
 30
0.0
 10
-7.57368
 20
10.40069
 30
0.0
 10
-7.57368
 20
10.40069
 30
0.0
 10
-7.60343
 20
10.39227
 30
0.0
 10
-7.59153
 20
10.39227
 30
0.0
 10
-7.60343
 20
10.38385
 30
0.0
 10
-7.60343
 20
10.38385
 30
0.0
 10
-7.61534
 20
10.36701
 30
0.0
 10
-7.63914
 20
5.8548
 30
0.0
 10
-7.59748
 20
5.2571
 30
0.0
 10
-7.59748
 20
5.2571
 30
0.0
 10
-7.58558
 20
5.15608
 30
0.0
 10
-7.38325
 20
5.02139
 30
0.0
 10
-7.29398
 20
4.9793
 30
0.0
 10
-7.29398
 20
4.9793
 30
0.0
 10
-6.99048
 20
4.82777
 30
0.0
 10
-6.65127
 20
4.85303
 30
0.0
 10
-6.27041
 20
4.86144
 30
0.0
 10
-6.27041
 20
4.86144
 30
0.0
 10
-6.18114
 20
4.86144
 30
0.0
 10
-6.10378
 20
4.84461
 30
0.0
 10
-6.00261
 20
4.84461
 30
0.0
 10
-6.00261
 20
4.84461
 30
0.0
 10
-6.00261
 20
4.84461
 30
0.0
 10
-1.98568
 20
4.84461
 30
0.0
 10
-1.98568
 20
4.84461
 30
0.0
 10
-1.98568
 20
4.84461
 30
0.0
 10
-1.88451
 20
4.84461
 30
0.0
 10
-1.79524
 20
4.86144
 30
0.0
 10
-1.70598
 20
4.86144
 30
0.0
 10
-1.70598
 20
4.86144
 30
0.0
 10
-1.32511
 20
4.86144
 30
0.0
 10
-0.99186
 20
4.82777
 30
0.0
 10
-0.67645
 20
4.9793
 30
0.0
 10
-0.67645
 20
4.9793
 30
0.0
 10
-0.58719
 20
5.01297
 30
0.0
 10
-0.3789
 20
5.1645
 30
0.0
 10
-0.367
 20
5.23185
 30
0.0
 10
-0.367
 20
5.23185
 30
0.0
 10
-0.36105
 20
5.27394
 30
0.0
 10
-0.367
 20
5.33287
 30
0.0
 10
-0.36105
 20
5.37496
 30
0.0
 10
-0.36105
 20
5.37496
 30
0.0
 10
-0.3551
 20
5.42547
 30
0.0
 10
-0.3432
 20
5.42547
 30
0.0
 10
-0.34915
 20
5.50124
 30
0.0
 10
-0.34915
 20
5.50124
 30
0.0
 10
-0.34915
 20
6.00633
 30
0.0
 10
-0.33129
 20
10.34176
 30
0.0
 10
-0.3551
 20
10.38385
 30
0.0
 10
-0.3551
 20
10.38385
 30
0.0
 10
-0.3789
 20
10.40911
 30
0.0
 10
-0.43841
 20
10.40069
 30
0.0
 10
-0.47412
 20
10.40069
 30
0.0
 10
-0.47412
 20
10.40069
 30
0.0
 10
-0.52768
 20
10.40911
 30
0.0
 10
-0.52173
 20
10.42594
 30
0.0
 10
-0.59314
 20
10.42594
 30
0.0
 10
-0.59314
 20
10.42594
 30
0.0
 10
-0.59314
 20
10.57747
 30
0.0
 10
-0.56934
 20
10.55222
 30
0.0
 10
-0.89069
 20
10.55222
 30
0.0
 10
-0.89069
 20
10.55222
 30
0.0
 10
-1.2418
 20
10.55222
 30
0.0
 10
-3.77693
 20
10.53538
 30
0.0
 10
-3.92571
 20
10.55222
 30
0.0
 10
-3.92571
 20
10.55222
 30
0.0
 10
-3.92571
 20
10.55222
 30
0.0
 10
-5.63365
 20
10.55222
 30
0.0
 10
-5.63365
 20
10.55222
 30
0.0
 10
-5.63365
 20
10.55222
 30
0.0
 10
-5.85979
 20
10.55222
 30
0.0
 10
-7.27018
 20
10.56905
 30
0.0
 10
-7.35349
 20
10.5438
 30
0.0
  0
SPLINE
  5
F6
330
1F
100
AcDbEntity
  8
Warstwa 1
 62
     7
100
AcDbSpline
210
0.0
220
0.0
230
1.0
 70
    11
 71
     3
 72
    24
 73
    20
 74
     0
 42
0.0000000001
 43
0.0000000001
 40
0.0
 40
0.0
 40
0.0
 40
0.0
 40
0.1666666666666667
 40
0.1666666666666667
 40
0.1666666666666667
 40
0.1666666666666667
 40
0.3333333333333333
 40
0.3333333333333333
 40
0.3333333333333333
 40
0.3333333333333333
 40
0.5
 40
0.5
 40
0.5
 40
0.5
 40
0.6666666666666666
 40
0.6666666666666666
 40
0.6666666666666666
 40
0.6666666666666666
 40
1.0
 40
1.0
 40
1.0
 40
1.0
 10
3.29882
 20
-5.07215
 30
0.0
 10
3.38809
 20
-5.11425
 30
0.0
 10
5.47094
 20
-5.09741
 30
0.0
 10
5.74469
 20
-5.09741
 30
0.0
 10
5.74469
 20
-5.09741
 30
0.0
 10
6.01249
 20
-5.09741
 30
0.0
 10
8.11915
 20
-5.11425
 30
0.0
 10
8.19651
 20
-5.07215
 30
0.0
 10
8.19651
 20
-5.07215
 30
0.0
 10
8.19651
 20
-5.07215
 30
0.0
 10
8.19651
 20
2.71478
 30
0.0
 10
8.19651
 20
2.71478
 30
0.0
 10
8.19651
 20
2.71478
 30
0.0
 10
8.19651
 20
2.71478
 30
0.0
 10
3.30478
 20
2.72319
 30
0.0
 10
3.30478
 20
2.72319
 30
0.0
 10
3.30478
 20
2.72319
 30
0.0
 10
3.30478
 20
2.72319
 30
0.0
 10
3.29882
 20
-5.07215
 30
0.0
 10
3.29882
 20
-5.07215
 30
0.0
  0
SPLINE
  5
F7
330
1F
100
AcDbEntity
  8
Warstwa 1
 62
     7
100
AcDbSpline
210
0.0
220
0.0
230
1.0
 70
    11
 71
     3
 72
    48
 73
    44
 74
     0
 42
0.0000000001
 43
0.0000000001
 40
0.0
 40
0.0
 40
0.0
 40
0.0
 40
0.0833333333333333
 40
0.0833333333333333
 40
0.0833333333333333
 40
0.0833333333333333
 40
0.1666666666666667
 40
0.1666666666666667
 40
0.1666666666666667
 40
0.1666666666666667
 40
0.25
 40
0.25
 40
0.25
 40
0.25
 40
0.3333333333333333
 40
0.3333333333333333
 40
0.3333333333333333
 40
0.3333333333333333
 40
0.4166666666666667
 40
0.4166666666666667
 40
0.4166666666666667
 40
0.4166666666666667
 40
0.5
 40
0.5
 40
0.5
 40
0.5
 40
0.5833333333333334
 40
0.5833333333333334
 40
0.5833333333333334
 40
0.5833333333333334
 40
0.6666666666666666
 40
0.6666666666666666
 40
0.6666666666666666
 40
0.6666666666666666
 40
0.75
 40
0.75
 40
0.75
 40
0.75
 40
0.8333333333333334
 40
0.8333333333333334
 40
0.8333333333333334
 40
0.8333333333333334
 40
1.0
 40
1.0
 40
1.0
 40
1.0
 10
-4.20405
 20
10.32706
 30
0.0
 10
-3.66815
 20
10.32883
 30
0.0
 10
-3.00158
 20
10.33026
 30
0.0
 10
-2.96759
 20
10.32492
 30
0.0
 10
-2.96759
 20
10.32492
 30
0.0
 10
-2.92594
 20
10.31651
 30
0.0
 10
-2.96164
 20
10.31651
 30
0.0
 10
-2.90808
 20
10.30809
 30
0.0
 10
-2.90808
 20
10.30809
 30
0.0
 10
-2.87238
 20
10.29967
 30
0.0
 10
-2.87833
 20
10.30809
 30
0.0
 10
-2.84262
 20
10.29125
 30
0.0
 10
-2.84262
 20
10.29125
 30
0.0
 10
-2.80692
 20
10.21549
 30
0.0
 10
-2.83072
 20
8.153
 30
0.0
 10
-2.83072
 20
7.86678
 30
0.0
 10
-2.83072
 20
7.86678
 30
0.0
 10
-2.83072
 20
7.4627
 30
0.0
 10
-2.83072
 20
7.05862
 30
0.0
 10
-2.83072
 20
6.65454
 30
0.0
 10
-2.83072
 20
6.65454
 30
0.0
 10
-2.83072
 20
6.47776
 30
0.0
 10
-2.84262
 20
5.52649
 30
0.0
 10
-2.82477
 20
5.44231
 30
0.0
 10
-2.82477
 20
5.44231
 30
0.0
 10
-2.82477
 20
5.44231
 30
0.0
 10
-0.3908
 20
5.43389
 30
0.0
 10
-0.3908
 20
5.43389
 30
0.0
 10
-0.3908
 20
5.43389
 30
0.0
 10
-0.367
 20
5.50124
 30
0.0
 10
-0.38485
 20
8.61601
 30
0.0
 10
-0.38485
 20
9.12111
 30
0.0
 10
-0.38485
 20
9.12111
 30
0.0
 10
-0.38485
 20
9.28947
 30
0.0
 10
-0.367
 20
10.28283
 30
0.0
 10
-0.3908
 20
10.3586
 30
0.0
 10
-0.3908
 20
10.3586
 30
0.0
 10
-0.3908
 20
10.3586
 30
0.0
 10
-4.20405
 20
10.3586
 30
0.0
 10
-4.20405
 20
10.3586
 30
0.0
 10
-4.20405
 20
10.3586
 30
0.0
 10
-4.20405
 20
10.3586
 30
0.0
 10
-4.20405
 20
10.32706
 30
0.0
 10
-4.20405
 20
10.32706
 30
0.0
  0
SPLINE
  5
F8
330
1F
100
AcDbEntity
  8
Warstwa 1
 62
     7
100
AcDbSpline
210
0.0
220
0.0
230
1.0
 70
    11
 71
     3
 72
    48
 73
    44
 74
     0
 42
0.0000000001
 43
0.0000000001
 40
0.0
 40
0.0
 40
0.0
 40
0.0
 40
0.0833333333333333
 40
0.0833333333333333
 40
0.0833333333333333
 40
0.0833333333333333
 40
0.1666666666666667
 40
0.1666666666666667
 40
0.1666666666666667
 40
0.1666666666666667
 40
0.25
 40
0.25
 40
0.25
 40
0.25
 40
0.3333333333333333
 40
0.3333333333333333
 40
0.3333333333333333
 40
0.3333333333333333
 40
0.4166666666666667
 40
0.4166666666666667
 40
0.4166666666666667
 40
0.4166666666666667
 40
0.5
 40
0.5
 40
0.5
 40
0.5
 40
0.5833333333333334
 40
0.5833333333333334
 40
0.5833333333333334
 40
0.5833333333333334
 40
0.6666666666666666
 40
0.6666666666666666
 40
0.6666666666666666
 40
0.6666666666666666
 40
0.75
 40
0.75
 40
0.75
 40
0.75
 40
0.8333333333333334
 40
0.8333333333333334
 40
0.8333333333333334
 40
0.8333333333333334
 40
1.0
 40
1.0
 40
1.0
 40
1.0
 10
-3.73841
 20
10.32706
 30
0.0
 10
-4.27431
 20
10.32883
 30
0.0
 10
-4.94088
 20
10.33026
 30
0.0
 10
-4.97487
 20
10.32492
 30
0.0
 10
-4.97487
 20
10.32492
 30
0.0
 10
-5.01652
 20
10.31651
 30
0.0
 10
-4.98082
 20
10.31651
 30
0.0
 10
-5.03438
 20
10.30809
 30
0.0
 10
-5.03438
 20
10.30809
 30
0.0
 10
-5.07008
 20
10.29967
 30
0.0
 10
-5.06413
 20
10.30809
 30
0.0
 10
-5.09984
 20
10.29125
 30
0.0
 10
-5.09984
 20
10.29125
 30
0.0
 10
-5.13554
 20
10.21549
 30
0.0
 10
-5.11174
 20
8.153
 30
0.0
 10
-5.11174
 20
7.86678
 30
0.0
 10
-5.11174
 20
7.86678
 30
0.0
 10
-5.11174
 20
7.4627
 30
0.0
 10
-5.11174
 20
7.05862
 30
0.0
 10
-5.11174
 20
6.65454
 30
0.0
 10
-5.11174
 20
6.65454
 30
0.0
 10
-5.11174
 20
6.47776
 30
0.0
 10
-5.09984
 20
5.52649
 30
0.0
 10
-5.11769
 20
5.44231
 30
0.0
 10
-5.11769
 20
5.44231
 30
0.0
 10
-5.11769
 20
5.44231
 30
0.0
 10
-7.55166
 20
5.43389
 30
0.0
 10
-7.55166
 20
5.43389
 30
0.0
 10
-7.55166
 20
5.43389
 30
0.0
 10
-7.57546
 20
5.50124
 30
0.0
 10
-7.55761
 20
8.61601
 30
0.0
 10
-7.55761
 20
9.12111
 30
0.0
 10
-7.55761
 20
9.12111
 30
0.0
 10
-7.55761
 20
9.28947
 30
0.0
 10
-7.57546
 20
10.28283
 30
0.0
 10
-7.55166
 20
10.3586
 30
0.0
 10
-7.55166
 20
10.3586
 30
0.0
 10
-7.55166
 20
10.3586
 30
0.0
 10
-3.73841
 20
10.3586
 30
0.0
 10
-3.73841
 20
10.3586
 30
0.0
 10
-3.73841
 20
10.3586
 30
0.0
 10
-3.73841
 20
10.3586
 30
0.0
 10
-3.73841
 20
10.32706
 30
0.0
 10
-3.73841
 20
10.32706
 30
0.0
  0
SPLINE
  5
F9
330
1F
100
AcDbEntity
  8
Warstwa 1
 62
   250
100
AcDbSpline
210
0.0
220
0.0
230
1.0
 70
    11
 71
     3
 72
    36
 73
    32
 74
     0
 42
0.0000000001
 43
0.0000000001
 40
0.0
 40
0.0
 40
0.0
 40
0.0
 40
0.1111111111111111
 40
0.1111111111111111
 40
0.1111111111111111
 40
0.1111111111111111
 40
0.2222222222222222
 40
0.2222222222222222
 40
0.2222222222222222
 40
0.2222222222222222
 40
0.3333333333333333
 40
0.3333333333333333
 40
0.3333333333333333
 40
0.3333333333333333
 40
0.4444444444444444
 40
0.4444444444444444
 40
0.4444444444444444
 40
0.4444444444444444
 40
0.5555555555555556
 40
0.5555555555555556
 40
0.5555555555555556
 40
0.5555555555555556
 40
0.6666666666666666
 40
0.6666666666666666
 40
0.6666666666666666
 40
0.6666666666666666
 40
0.7777777777777778
 40
0.7777777777777778
 40
0.7777777777777778
 40
0.7777777777777778
 40
1.0
 40
1.0
 40
1.0
 40
1.0
 10
-5.09211
 20
4.96246
 30
0.0
 10
-4.94928
 20
4.95405
 30
0.0
 10
-4.18755
 20
4.96246
 30
0.0
 10
-3.98522
 20
4.96246
 30
0.0
 10
-3.98522
 20
4.96246
 30
0.0
 10
-3.81264
 20
4.96246
 30
0.0
 10
-2.96759
 20
4.94563
 30
0.0
 10
-2.87238
 20
4.97088
 30
0.0
 10
-2.87238
 20
4.97088
 30
0.0
 10
-2.87238
 20
4.97088
 30
0.0
 10
-2.87238
 20
10.266
 30
0.0
 10
-2.87238
 20
10.266
 30
0.0
 10
-2.87238
 20
10.266
 30
0.0
 10
-2.91403
 20
10.27441
 30
0.0
 10
-4.98499
 20
10.28283
 30
0.0
 10
-5.08616
 20
10.266
 30
0.0
 10
-5.08616
 20
10.266
 30
0.0
 10
-5.10401
 20
10.19865
 30
0.0
 10
-5.09211
 20
9.12111
 30
0.0
 10
-5.09211
 20
8.95274
 30
0.0
 10
-5.09211
 20
8.95274
 30
0.0
 10
-5.09211
 20
8.95274
 30
0.0
 10
-5.09211
 20
6.29256
 30
0.0
 10
-5.09211
 20
6.29256
 30
0.0
 10
-5.09211
 20
6.29256
 30
0.0
 10
-5.09211
 20
6.07368
 30
0.0
 10
-5.09211
 20
5.8548
 30
0.0
 10
-5.09211
 20
5.63593
 30
0.0
 10
-5.09211
 20
5.63593
 30
0.0
 10
-5.09211
 20
5.41705
 30
0.0
 10
-5.10401
 20
5.18134
 30
0.0
 10
-5.09211
 20
4.96246
 30
0.0
  0
SPLINE
  5
FA
330
1F
100
AcDbEntity
  8
Warstwa 1
 62
     7
100
AcDbSpline
210
0.0
220
0.0
230
1.0
 70
    11
 71
     3
 72
    20
 73
    16
 74
     0
 42
0.0000000001
 43
0.0000000001
 40
0.0
 40
0.0
 40
0.0
 40
0.0
 40
0.2
 40
0.2
 40
0.2
 40
0.2
 40
0.4
 40
0.4
 40
0.4
 40
0.4
 40
0.6
 40
0.6
 40
0.6
 40
0.6
 40
1.0
 40
1.0
 40
1.0
 40
1.0
 10
-5.0802
 20
4.97088
 30
0.0
 10
-5.0802
 20
4.97088
 30
0.0
 10
-2.88428
 20
4.9793
 30
0.0
 10
-2.88428
 20
4.9793
 30
0.0
 10
-2.88428
 20
4.9793
 30
0.0
 10
-2.88428
 20
4.9793
 30
0.0
 10
-2.87833
 20
10.266
 30
0.0
 10
-2.87833
 20
10.266
 30
0.0
 10
-2.87833
 20
10.266
 30
0.0
 10
-2.87833
 20
10.266
 30
0.0
 10
-5.08616
 20
10.266
 30
0.0
 10
-5.08616
 20
10.266
 30
0.0
 10
-5.08616
 20
10.266
 30
0.0
 10
-5.08616
 20
10.266
 30
0.0
 10
-5.0802
 20
4.97088
 30
0.0
 10
-5.0802
 20
4.97088
 30
0.0
  0
SPLINE
  5
FB
330
1F
100
AcDbEntity
  8
Warstwa 1
 62
   252
100
AcDbSpline
210
0.0
220
0.0
230
1.0
 70
    11
 71
     3
 72
    20
 73
    16
 74
     0
 42
0.0000000001
 43
0.0000000001
 40
0.0
 40
0.0
 40
0.0
 40
0.0
 40
0.2
 40
0.2
 40
0.2
 40
0.2
 40
0.4
 40
0.4
 40
0.4
 40
0.4
 40
0.6
 40
0.6
 40
0.6
 40
0.6
 40
1.0
 40
1.0
 40
1.0
 40
1.0
 10
-1.75359
 20
0.25663
 30
0.0
 10
-1.75359
 20
0.25663
 30
0.0
 10
-0.40271
 20
0.25663
 30
0.0
 10
-0.40271
 20
0.25663
 30
0.0
 10
-0.40271
 20
0.25663
 30
0.0
 10
-0.40271
 20
0.25663
 30
0.0
 10
-0.39676
 20
3.00942
 30
0.0
 10
-0.39676
 20
3.00942
 30
0.0
 10
-0.39676
 20
3.00942
 30
0.0
 10
-0.52173
 20
3.01784
 30
0.0
 10
-1.69408
 20
3.02625
 30
0.0
 10
-1.75954
 20
3.00942
 30
0.0
 10
-1.75954
 20
3.00942
 30
0.0
 10
-1.77144
 20
2.92523
 30
0.0
 10
-1.77144
 20
0.30714
 30
0.0
 10
-1.75359
 20
0.25663
 30
0.0
  0
SPLINE
  5
FC
330
1F
100
AcDbEntity
  8
Warstwa 1
 62
     7
100
AcDbSpline
210
0.0
220
0.0
230
1.0
 70
    11
 71
     3
 72
    28
 73
    24
 74
     0
 42
0.0000000001
 43
0.0000000001
 40
0.0
 40
0.0
 40
0.0
 40
0.0
 40
0.1428571428571428
 40
0.1428571428571428
 40
0.1428571428571428
 40
0.1428571428571428
 40
0.2857142857142857
 40
0.2857142857142857
 40
0.2857142857142857
 40
0.2857142857142857
 40
0.4285714285714285
 40
0.4285714285714285
 40
0.4285714285714285
 40
0.4285714285714285
 40
0.5714285714285714
 40
0.5714285714285714
 40
0.5714285714285714
 40
0.5714285714285714
 40
0.7142857142857143
 40
0.7142857142857143
 40
0.7142857142857143
 40
0.7142857142857143
 40
1.0
 40
1.0
 40
1.0
 40
1.0
 10
-7.55583
 20
0.25663
 30
0.0
 10
-7.13926
 20
0.24821
 30
0.0
 10
-6.69293
 20
0.25663
 30
0.0
 10
-6.27041
 20
0.25663
 30
0.0
 10
-6.27041
 20
0.25663
 30
0.0
 10
-6.18114
 20
0.25663
 30
0.0
 10
-6.19899
 20
0.2398
 30
0.0
 10
-6.19899
 20
0.43342
 30
0.0
 10
-6.19899
 20
0.43342
 30
0.0
 10
-6.19899
 20
0.60178
 30
0.0
 10
-6.19899
 20
0.77015
 30
0.0
 10
-6.19899
 20
0.94693
 30
0.0
 10
-6.19899
 20
0.94693
 30
0.0
 10
-6.19899
 20
1.09846
 30
0.0
 10
-6.18709
 20
2.89998
 30
0.0
 10
-6.20495
 20
3.001
 30
0.0
 10
-6.20495
 20
3.001
 30
0.0
 10
-6.28231
 20
3.02625
 30
0.0
 10
-7.3892
 20
3.01784
 30
0.0
 10
-7.55583
 20
3.00942
 30
0.0
 10
-7.55583
 20
3.00942
 30
0.0
 10
-7.55583
 20
3.00942
 30
0.0
 10
-7.55583
 20
0.25663
 30
0.0
 10
-7.55583
 20
0.25663
 30
0.0
  0
SPLINE
  5
FD
330
1F
100
AcDbEntity
  8
Warstwa 1
 62
     7
100
AcDbSpline
210
0.0
220
0.0
230
1.0
 70
    11
 71
     3
 72
    20
 73
    16
 74
     0
 42
0.0000000001
 43
0.0000000001
 40
0.0
 40
0.0
 40
0.0
 40
0.0
 40
0.2
 40
0.2
 40
0.2
 40
0.2
 40
0.4
 40
0.4
 40
0.4
 40
0.4
 40
0.6
 40
0.6
 40
0.6
 40
0.6
 40
1.0
 40
1.0
 40
1.0
 40
1.0
 10
-1.75359
 20
0.25663
 30
0.0
 10
-1.75359
 20
0.25663
 30
0.0
 10
-0.40866
 20
0.27347
 30
0.0
 10
-0.40866
 20
0.27347
 30
0.0
 10
-0.40866
 20
0.27347
 30
0.0
 10
-0.40866
 20
0.27347
 30
0.0
 10
-0.41461
 20
3.001
 30
0.0
 10
-0.41461
 20
3.001
 30
0.0
 10
-0.41461
 20
3.001
 30
0.0
 10
-0.41461
 20
3.001
 30
0.0
 10
-1.75954
 20
3.00942
 30
0.0
 10
-1.75954
 20
3.00942
 30
0.0
 10
-1.75954
 20
3.00942
 30
0.0
 10
-1.75954
 20
3.00942
 30
0.0
 10
-1.75359
 20
0.25663
 30
0.0
 10
-1.75359
 20
0.25663
 30
0.0
  0
SPLINE
  5
FE
330
1F
100
AcDbEntity
  8
Warstwa 1
 62
     7
100
AcDbSpline
210
0.0
220
0.0
230
1.0
 70
    11
 71
     3
 72
    32
 73
    28
 74
     0
 42
0.0000000001
 43
0.0000000001
 40
0.0
 40
0.0
 40
0.0
 40
0.0
 40
0.125
 40
0.125
 40
0.125
 40
0.125
 40
0.25
 40
0.25
 40
0.25
 40
0.25
 40
0.375
 40
0.375
 40
0.375
 40
0.375
 40
0.5
 40
0.5
 40
0.5
 40
0.5
 40
0.625
 40
0.625
 40
0.625
 40
0.625
 40
0.75
 40
0.75
 40
0.75
 40
0.75
 40
1.0
 40
1.0
 40
1.0
 40
1.0
 10
2.74538
 20
-5.07215
 30
0.0
 10
2.74538
 20
-5.07215
 30
0.0
 10
3.17385
 20
-5.07215
 30
0.0
 10
3.17385
 20
-5.07215
 30
0.0
 10
3.17385
 20
-5.07215
 30
0.0
 10
3.26312
 20
-4.92063
 30
0.0
 10
3.22741
 20
-4.04512
 30
0.0
 10
3.22741
 20
-3.80941
 30
0.0
 10
3.22741
 20
-3.80941
 30
0.0
 10
3.22741
 20
-3.38008
 30
0.0
 10
3.22741
 20
-2.94232
 30
0.0
 10
3.22741
 20
-2.50457
 30
0.0
 10
3.22741
 20
-2.50457
 30
0.0
 10
3.22741
 20
-2.06682
 30
0.0
 10
3.22741
 20
-1.63749
 30
0.0
 10
3.22741
 20
-1.19973
 30
0.0
 10
3.22741
 20
-1.19973
 30
0.0
 10
3.22741
 20
-0.76198
 30
0.0
 10
3.23931
 20
-0.31581
 30
0.0
 10
3.22741
 20
0.11352
 30
0.0
 10
3.22741
 20
0.11352
 30
0.0
 10
3.22741
 20
0.11352
 30
0.0
 10
2.74538
 20
0.12194
 30
0.0
 10
2.74538
 20
0.12194
 30
0.0
 10
2.74538
 20
0.12194
 30
0.0
 10
2.74538
 20
0.12194
 30
0.0
 10
2.74538
 20
-5.07215
 30
0.0
 10
2.74538
 20
-5.07215
 30
0.0
  0
SPLINE
  5
FF
330
1F
100
AcDbEntity
  8
Warstwa 1
 62
     7
100
AcDbSpline
210
0.0
220
0.0
230
1.0
 70
    11
 71
     3
 72
    28
 73
    24
 74
     0
 42
0.0000000001
 43
0.0000000001
 40
0.0
 40
0.0
 40
0.0
 40
0.0
 40
0.1428571428571428
 40
0.1428571428571428
 40
0.1428571428571428
 40
0.1428571428571428
 40
0.2857142857142857
 40
0.2857142857142857
 40
0.2857142857142857
 40
0.2857142857142857
 40
0.4285714285714285
 40
0.4285714285714285
 40
0.4285714285714285
 40
0.4285714285714285
 40
0.5714285714285714
 40
0.5714285714285714
 40
0.5714285714285714
 40
0.5714285714285714
 40
0.7142857142857143
 40
0.7142857142857143
 40
0.7142857142857143
 40
0.7142857142857143
 40
1.0
 40
1.0
 40
1.0
 40
1.0
 10
2.75133
 20
3.001
 30
0.0
 10
2.73348
 20
2.89998
 30
0.0
 10
2.73943
 20
0.30714
 30
0.0
 10
2.75133
 20
0.25663
 30
0.0
 10
2.75133
 20
0.25663
 30
0.0
 10
2.75133
 20
0.25663
 30
0.0
 10
3.22741
 20
0.25663
 30
0.0
 10
3.22741
 20
0.25663
 30
0.0
 10
3.22741
 20
0.25663
 30
0.0
 10
3.22741
 20
0.25663
 30
0.0
 10
3.22741
 20
2.68952
 30
0.0
 10
3.22741
 20
2.68952
 30
0.0
 10
3.22741
 20
2.68952
 30
0.0
 10
3.22741
 20
2.75687
 30
0.0
 10
3.22741
 20
2.82421
 30
0.0
 10
3.22741
 20
2.89156
 30
0.0
 10
3.22741
 20
2.89156
 30
0.0
 10
3.22741
 20
2.99258
 30
0.0
 10
3.25122
 20
3.00942
 30
0.0
 10
3.156
 20
3.00942
 30
0.0
 10
3.156
 20
3.00942
 30
0.0
 10
3.05483
 20
3.00942
 30
0.0
 10
2.82869
 20
3.01784
 30
0.0
 10
2.75133
 20
3.001
 30
0.0
  0
SPLINE
  5
100
330
1F
100
AcDbEntity
  8
Warstwa 1
100
AcDbSpline
210
0.0
220
0.0
230
1.0
 70
    11
 71
     3
 72
   116
 73
   112
 74
     0
 42
0.0000000001
 43
0.0000000001
 40
0.0
 40
0.0
 40
0.0
 40
0.0
 40
0.0344827586206897
 40
0.0344827586206897
 40
0.0344827586206897
 40
0.0344827586206897
 40
0.0689655172413793
 40
0.0689655172413793
 40
0.0689655172413793
 40
0.0689655172413793
 40
0.103448275862069
 40
0.103448275862069
 40
0.103448275862069
 40
0.103448275862069
 40
0.1379310344827586
 40
0.1379310344827586
 40
0.1379310344827586
 40
0.1379310344827586
 40
0.1724137931034483
 40
0.1724137931034483
 40
0.1724137931034483
 40
0.1724137931034483
 40
0.2068965517241379
 40
0.2068965517241379
 40
0.2068965517241379
 40
0.2068965517241379
 40
0.2413793103448276
 40
0.2413793103448276
 40
0.2413793103448276
 40
0.2413793103448276
 40
0.2758620689655172
 40
0.2758620689655172
 40
0.2758620689655172
 40
0.2758620689655172
 40
0.3103448275862069
 40
0.3103448275862069
 40
0.3103448275862069
 40
0.3103448275862069
 40
0.3448275862068966
 40
0.3448275862068966
 40
0.3448275862068966
 40
0.3448275862068966
 40
0.3793103448275862
 40
0.3793103448275862
 40
0.3793103448275862
 40
0.3793103448275862
 40
0.4137931034482759
 40
0.4137931034482759
 40
0.4137931034482759
 40
0.4137931034482759
 40
0.4482758620689655
 40
0.4482758620689655
 40
0.4482758620689655
 40
0.4482758620689655
 40
0.4827586206896552
 40
0.4827586206896552
 40
0.4827586206896552
 40
0.4827586206896552
 40
0.5172413793103449
 40
0.5172413793103449
 40
0.5172413793103449
 40
0.5172413793103449
 40
0.5517241379310345
 40
0.5517241379310345
 40
0.5517241379310345
 40
0.5517241379310345
 40
0.5862068965517241
 40
0.5862068965517241
 40
0.5862068965517241
 40
0.5862068965517241
 40
0.6206896551724138
 40
0.6206896551724138
 40
0.6206896551724138
 40
0.6206896551724138
 40
0.6551724137931034
 40
0.6551724137931034
 40
0.6551724137931034
 40
0.6551724137931034
 40
0.6896551724137931
 40
0.6896551724137931
 40
0.6896551724137931
 40
0.6896551724137931
 40
0.7241379310344828
 40
0.7241379310344828
 40
0.7241379310344828
 40
0.7241379310344828
 40
0.7586206896551724
 40
0.7586206896551724
 40
0.7586206896551724
 40
0.7586206896551724
 40
0.7931034482758621
 40
0.7931034482758621
 40
0.7931034482758621
 40
0.7931034482758621
 40
0.8275862068965517
 40
0.8275862068965517
 40
0.8275862068965517
 40
0.8275862068965517
 40
0.8620689655172413
 40
0.8620689655172413
 40
0.8620689655172413
 40
0.8620689655172413
 40
0.896551724137931
 40
0.896551724137931
 40
0.896551724137931
 40
0.896551724137931
 40
0.9310344827586207
 40
0.9310344827586207
 40
0.9310344827586207
 40
0.9310344827586207
 40
1.0
 40
1.0
 40
1.0
 40
1.0
 10
8.4643
 20
-8.77621
 30
0.0
 10
8.49406
 20
-8.77621
 30
0.0
 10
8.48811
 20
-8.77621
 30
0.0
 10
8.50596
 20
-8.75937
 30
0.0
 10
8.50596
 20
-8.75937
 30
0.0
 10
8.50596
 20
-8.75937
 30
0.0
 10
8.48811
 20
-8.45631
 30
0.0
 10
8.48811
 20
-8.45631
 30
0.0
 10
8.48811
 20
-8.45631
 30
0.0
 10
8.4643
 20
-8.43948
 30
0.0
 10
3.94748
 20
-8.45631
 30
0.0
 10
3.50116
 20
-8.44789
 30
0.0
 10
3.50116
 20
-8.44789
 30
0.0
 10
3.50116
 20
-8.44789
 30
0.0
 10
3.50116
 20
-7.49663
 30
0.0
 10
3.50116
 20
-7.49663
 30
0.0
 10
3.50116
 20
-7.49663
 30
0.0
 10
3.96534
 20
-7.49663
 30
0.0
 10
8.4524
 20
-7.50504
 30
0.0
 10
8.50001
 20
-7.47979
 30
0.0
 10
8.50001
 20
-7.47979
 30
0.0
 10
8.50001
 20
-7.47979
 30
0.0
 10
8.50001
 20
-6.1497
 30
0.0
 10
8.50001
 20
-6.1497
 30
0.0
 10
8.50001
 20
-6.1497
 30
0.0
 10
8.48216
 20
-5.98975
 30
0.0
 10
8.50001
 20
-5.75404
 30
0.0
 10
8.50001
 20
-5.58567
 30
0.0
 10
8.50001
 20
-5.58567
 30
0.0
 10
8.50001
 20
-5.40047
 30
0.0
 10
8.50001
 20
-5.20685
 30
0.0
 10
8.50001
 20
-5.02165
 30
0.0
 10
8.50001
 20
-5.02165
 30
0.0
 10
8.50001
 20
-4.83644
 30
0.0
 10
8.51191
 20
-3.98619
 30
0.0
 10
8.50001
 20
-3.88517
 30
0.0
 10
8.50001
 20
-3.88517
 30
0.0
 10
8.50001
 20
-3.88517
 30
0.0
 10
8.50596
 20
6.01475
 30
0.0
 10
8.50596
 20
6.01475
 30
0.0
 10
8.50596
 20
6.01475
 30
0.0
 10
8.50596
 20
6.01475
 30
0.0
 10
9.46408
 20
6.01475
 30
0.0
 10
9.46408
 20
6.01475
 30
0.0
 10
9.46408
 20
6.01475
 30
0.0
 10
9.46408
 20
6.01475
 30
0.0
 10
9.47003
 20
-2.64768
 30
0.0
 10
9.47003
 20
-2.64768
 30
0.0
 10
9.47003
 20
-2.64768
 30
0.0
 10
9.47003
 20
-2.64768
 30
0.0
 10
9.46408
 20
-4.0367
 30
0.0
 10
9.46408
 20
-4.0367
 30
0.0
 10
9.46408
 20
-4.0367
 30
0.0
 10
9.46408
 20
-4.0367
 30
0.0
 10
9.46408
 20
-5.34996
 30
0.0
 10
9.46408
 20
-5.34996
 30
0.0
 10
9.46408
 20
-5.34996
 30
0.0
 10
9.46408
 20
-5.34996
 30
0.0
 10
9.46408
 20
-6.38541
 30
0.0
 10
9.46408
 20
-6.38541
 30
0.0
 10
9.46408
 20
-6.38541
 30
0.0
 10
9.46408
 20
-6.38541
 30
0.0
 10
9.46408
 20
-7.39561
 30
0.0
 10
9.46408
 20
-7.39561
 30
0.0
 10
9.46408
 20
-7.39561
 30
0.0
 10
9.48193
 20
-7.42086
 30
0.0
 10
9.47598
 20
-7.37035
 30
0.0
 10
9.48193
 20
-7.42086
 30
0.0
 10
9.48193
 20
-7.42086
 30
0.0
 10
9.48193
 20
-7.41244
 30
0.0
 10
9.48193
 20
-7.39561
 30
0.0
 10
9.48788
 20
-7.38719
 30
0.0
 10
9.48788
 20
-7.38719
 30
0.0
 10
9.49383
 20
-7.36193
 30
0.0
 10
9.48788
 20
-7.37035
 30
0.0
 10
9.49978
 20
-7.35352
 30
0.0
 10
9.49978
 20
-7.35352
 30
0.0
 10
9.49978
 20
-7.35352
 30
0.0
 10
9.48193
 20
6.04842
 30
0.0
 10
9.48193
 20
6.04842
 30
0.0
 10
9.48193
 20
6.04842
 30
0.0
 10
9.46408
 20
6.04842
 30
0.0
 10
9.48193
 20
6.04842
 30
0.0
 10
9.45217
 20
6.05684
 30
0.0
 10
9.45217
 20
6.05684
 30
0.0
 10
9.45217
 20
6.05684
 30
0.0
 10
8.99395
 20
6.04842
 30
0.0
 10
8.99395
 20
6.04842
 30
0.0
 10
8.99395
 20
6.04842
 30
0.0
 10
8.86302
 20
6.04842
 30
0.0
 10
8.57737
 20
6.06526
 30
0.0
 10
8.47026
 20
6.04842
 30
0.0
 10
8.47026
 20
6.04842
 30
0.0
 10
8.47026
 20
6.04842
 30
0.0
 10
8.4643
 20
-7.45453
 30
0.0
 10
8.4643
 20
-7.45453
 30
0.0
 10
8.4643
 20
-7.45453
 30
0.0
 10
8.4643
 20
-7.45453
 30
0.0
 10
3.46545
 20
-7.45453
 30
0.0
 10
3.46545
 20
-7.45453
 30
0.0
 10
3.46545
 20
-7.45453
 30
0.0
 10
3.4476
 20
-7.5303
 30
0.0
 10
3.45355
 20
-8.43106
 30
0.0
 10
3.4714
 20
-8.48999
 30
0.0
 10
3.4714
 20
-8.48999
 30
0.0
 10
3.4714
 20
-8.48999
 30
0.0
 10
8.4643
 20
-8.48999
 30
0.0
 10
8.4643
 20
-8.48999
 30
0.0
 10
8.4643
 20
-8.48999
 30
0.0
 10
8.4643
 20
-8.48999
 30
0.0
 10
8.4643
 20
-8.77621
 30
0.0
 10
8.4643
 20
-8.77621
 30
0.0
  0
SPLINE
  5
101
330
1F
100
AcDbEntity
  8
Warstwa 1
 62
     7
100
AcDbSpline
210
0.0
220
0.0
230
1.0
 70
    11
 71
     3
 72
    28
 73
    24
 74
     0
 42
0.0000000001
 43
0.0000000001
 40
0.0
 40
0.0
 40
0.0
 40
0.0
 40
0.1428571428571428
 40
0.1428571428571428
 40
0.1428571428571428
 40
0.1428571428571428
 40
0.2857142857142857
 40
0.2857142857142857
 40
0.2857142857142857
 40
0.2857142857142857
 40
0.4285714285714285
 40
0.4285714285714285
 40
0.4285714285714285
 40
0.4285714285714285
 40
0.5714285714285714
 40
0.5714285714285714
 40
0.5714285714285714
 40
0.5714285714285714
 40
0.7142857142857143
 40
0.7142857142857143
 40
0.7142857142857143
 40
0.7142857142857143
 40
1.0
 40
1.0
 40
1.0
 40
1.0
 10
7.98822
 20
2.95049
 30
0.0
 10
7.98822
 20
2.95049
 30
0.0
 10
3.29882
 20
2.95891
 30
0.0
 10
3.29882
 20
2.95891
 30
0.0
 10
3.29882
 20
2.95891
 30
0.0
 10
3.28097
 20
2.9084
 30
0.0
 10
3.28692
 20
2.8158
 30
0.0
 10
3.29287
 20
2.76529
 30
0.0
 10
3.29287
 20
2.76529
 30
0.0
 10
4.13197
 20
2.74845
 30
0.0
 10
5.06032
 20
2.75687
 30
0.0
 10
5.91132
 20
2.75687
 30
0.0
 10
5.91132
 20
2.75687
 30
0.0
 10
5.91132
 20
2.75687
 30
0.0
 10
8.20841
 20
2.75687
 30
0.0
 10
8.20841
 20
2.75687
 30
0.0
 10
8.20841
 20
2.75687
 30
0.0
 10
8.21436
 20
2.79896
 30
0.0
 10
8.22626
 20
2.94207
 30
0.0
 10
8.19651
 20
2.95891
 30
0.0
 10
8.19651
 20
2.95891
 30
0.0
 10
8.19056
 20
2.95891
 30
0.0
 10
8.02393
 20
2.95049
 30
0.0
 10
7.98822
 20
2.95049
 30
0.0
  0
SPLINE
  5
102
330
1F
100
AcDbEntity
  8
Warstwa 1
 62
     7
100
AcDbSpline
210
0.0
220
0.0
230
1.0
 70
    11
 71
     3
 72
    32
 73
    28
 74
     0
 42
0.0000000001
 43
0.0000000001
 40
0.0
 40
0.0
 40
0.0
 40
0.0
 40
0.125
 40
0.125
 40
0.125
 40
0.125
 40
0.25
 40
0.25
 40
0.25
 40
0.25
 40
0.375
 40
0.375
 40
0.375
 40
0.375
 40
0.5
 40
0.5
 40
0.5
 40
0.5
 40
0.625
 40
0.625
 40
0.625
 40
0.625
 40
0.75
 40
0.75
 40
0.75
 40
0.75
 40
1.0
 40
1.0
 40
1.0
 40
1.0
 10
-1.77144
 20
4.96246
 30
0.0
 10
-1.73573
 20
4.94563
 30
0.0
 10
-1.75954
 20
4.93721
 30
0.0
 10
-1.73573
 20
4.89512
 30
0.0
 10
-1.73573
 20
4.89512
 30
0.0
 10
-1.29536
 20
4.87828
 30
0.0
 10
-0.89664
 20
4.85303
 30
0.0
 10
-0.55743
 20
5.08032
 30
0.0
 10
-0.55743
 20
5.08032
 30
0.0
 10
-0.37295
 20
5.20659
 30
0.0
 10
-0.40271
 20
5.23185
 30
0.0
 10
-0.40271
 20
5.3918
 30
0.0
 10
-0.40271
 20
5.3918
 30
0.0
 10
-0.40271
 20
5.3918
 30
0.0
 10
-2.71765
 20
5.3918
 30
0.0
 10
-2.71765
 20
5.3918
 30
0.0
 10
-2.71765
 20
5.3918
 30
0.0
 10
-2.71765
 20
5.3918
 30
0.0
 10
-2.83667
 20
5.3918
 30
0.0
 10
-2.83667
 20
5.3918
 30
0.0
 10
-2.83667
 20
5.3918
 30
0.0
 10
-2.83667
 20
5.3918
 30
0.0
 10
-2.83072
 20
4.97088
 30
0.0
 10
-2.83072
 20
4.97088
 30
0.0
 10
-2.83072
 20
4.97088
 30
0.0
 10
-2.83072
 20
4.97088
 30
0.0
 10
-1.77144
 20
4.96246
 30
0.0
 10
-1.77144
 20
4.96246
 30
0.0
  0
SPLINE
  5
103
330
1F
100
AcDbEntity
  8
Warstwa 1
 62
     7
100
AcDbSpline
210
0.0
220
0.0
230
1.0
 70
    11
 71
     3
 72
    36
 73
    32
 74
     0
 42
0.0000000001
 43
0.0000000001
 40
0.0
 40
0.0
 40
0.0
 40
0.0
 40
0.1111111111111111
 40
0.1111111111111111
 40
0.1111111111111111
 40
0.1111111111111111
 40
0.2222222222222222
 40
0.2222222222222222
 40
0.2222222222222222
 40
0.2222222222222222
 40
0.3333333333333333
 40
0.3333333333333333
 40
0.3333333333333333
 40
0.3333333333333333
 40
0.4444444444444444
 40
0.4444444444444444
 40
0.4444444444444444
 40
0.4444444444444444
 40
0.5555555555555556
 40
0.5555555555555556
 40
0.5555555555555556
 40
0.5555555555555556
 40
0.6666666666666666
 40
0.6666666666666666
 40
0.6666666666666666
 40
0.6666666666666666
 40
0.7777777777777778
 40
0.7777777777777778
 40
0.7777777777777778
 40
0.7777777777777778
 40
1.0
 40
1.0
 40
1.0
 40
1.0
 10
-5.80028
 20
5.3918
 30
0.0
 10
-5.80028
 20
5.3918
 30
0.0
 10
-7.55583
 20
5.3918
 30
0.0
 10
-7.55583
 20
5.3918
 30
0.0
 10
-7.55583
 20
5.3918
 30
0.0
 10
-7.55583
 20
5.26552
 30
0.0
 10
-7.58558
 20
5.19818
 30
0.0
 10
-7.4011
 20
5.08874
 30
0.0
 10
-7.4011
 20
5.08874
 30
0.0
 10
-7.29993
 20
5.02139
 30
0.0
 10
-7.21662
 20
4.97088
 30
0.0
 10
-7.0857
 20
4.93721
 30
0.0
 10
-7.0857
 20
4.93721
 30
0.0
 10
-6.84766
 20
4.86986
 30
0.0
 10
-6.46679
 20
4.8867
 30
0.0
 10
-6.2109
 20
4.89512
 30
0.0
 10
-6.2109
 20
4.89512
 30
0.0
 10
-6.19899
 20
4.93721
 30
0.0
 10
-6.21685
 20
4.93721
 30
0.0
 10
-6.18709
 20
4.96246
 30
0.0
 10
-6.18709
 20
4.96246
 30
0.0
 10
-6.18709
 20
4.96246
 30
0.0
 10
-5.13376
 20
4.97088
 30
0.0
 10
-5.13376
 20
4.97088
 30
0.0
 10
-5.13376
 20
4.97088
 30
0.0
 10
-5.12186
 20
5.10557
 30
0.0
 10
-5.12186
 20
5.24869
 30
0.0
 10
-5.12186
 20
5.3918
 30
0.0
 10
-5.12186
 20
5.3918
 30
0.0
 10
-5.12186
 20
5.3918
 30
0.0
 10
-5.80028
 20
5.3918
 30
0.0
 10
-5.80028
 20
5.3918
 30
0.0
  0
SPLINE
  5
104
330
1F
100
AcDbEntity
  8
Warstwa 1
 62
     7
100
AcDbSpline
210
0.0
220
0.0
230
1.0
 70
    11
 71
     3
 72
    28
 73
    24
 74
     0
 42
0.0000000001
 43
0.0000000001
 40
0.0
 40
0.0
 40
0.0
 40
0.0
 40
0.1428571428571428
 40
0.1428571428571428
 40
0.1428571428571428
 40
0.1428571428571428
 40
0.2857142857142857
 40
0.2857142857142857
 40
0.2857142857142857
 40
0.2857142857142857
 40
0.4285714285714285
 40
0.4285714285714285
 40
0.4285714285714285
 40
0.4285714285714285
 40
0.5714285714285714
 40
0.5714285714285714
 40
0.5714285714285714
 40
0.5714285714285714
 40
0.7142857142857143
 40
0.7142857142857143
 40
0.7142857142857143
 40
0.7142857142857143
 40
1.0
 40
1.0
 40
1.0
 40
1.0
 10
8.26197
 20
-4.77751
 30
0.0
 10
8.26197
 20
-4.77751
 30
0.0
 10
8.35719
 20
-4.77751
 30
0.0
 10
8.35719
 20
-4.77751
 30
0.0
 10
8.35719
 20
-4.77751
 30
0.0
 10
8.35719
 20
-4.77751
 30
0.0
 10
8.35719
 20
2.70636
 30
0.0
 10
8.35719
 20
2.70636
 30
0.0
 10
8.35719
 20
2.70636
 30
0.0
 10
8.35719
 20
2.70636
 30
0.0
 10
8.26792
 20
2.70636
 30
0.0
 10
8.26792
 20
2.70636
 30
0.0
 10
8.26792
 20
2.70636
 30
0.0
 10
8.25007
 20
2.5885
 30
0.0
 10
8.26197
 20
-0.93035
 30
0.0
 10
8.26197
 20
-1.03137
 30
0.0
 10
8.26197
 20
-1.03137
 30
0.0
 10
8.26197
 20
-1.03137
 30
0.0
 10
8.26197
 20
-3.83466
 30
0.0
 10
8.26197
 20
-3.83466
 30
0.0
 10
8.26197
 20
-3.83466
 30
0.0
 10
8.26197
 20
-4.13772
 30
0.0
 10
8.25007
 20
-4.48287
 30
0.0
 10
8.26197
 20
-4.77751
 30
0.0
  0
SPLINE
  5
105
330
1F
100
AcDbEntity
  8
Warstwa 1
 62
     7
100
AcDbSpline
210
0.0
220
0.0
230
1.0
 70
    11
 71
     3
 72
    40
 73
    36
 74
     0
 42
0.0000000001
 43
0.0000000001
 40
0.0
 40
0.0
 40
0.0
 40
0.0
 40
0.1
 40
0.1
 40
0.1
 40
0.1
 40
0.2
 40
0.2
 40
0.2
 40
0.2
 40
0.3
 40
0.3
 40
0.3
 40
0.3
 40
0.4
 40
0.4
 40
0.4
 40
0.4
 40
0.5
 40
0.5
 40
0.5
 40
0.5
 40
0.6
 40
0.6
 40
0.6
 40
0.6
 40
0.7
 40
0.7
 40
0.7
 40
0.7
 40
0.8
 40
0.8
 40
0.8
 40
0.8
 40
1.0
 40
1.0
 40
1.0
 40
1.0
 10
-7.32969
 20
10.42594
 30
0.0
 10
-7.21662
 20
10.39227
 30
0.0
 10
-5.87764
 20
10.40911
 30
0.0
 10
-5.65745
 20
10.41752
 30
0.0
 10
-5.65745
 20
10.41752
 30
0.0
 10
-5.53248
 20
10.41752
 30
0.0
 10
-5.37775
 20
10.40911
 30
0.0
 10
-5.24683
 20
10.40911
 30
0.0
 10
-5.24683
 20
10.40911
 30
0.0
 10
-5.24683
 20
10.40911
 30
0.0
 10
-2.28323
 20
10.41752
 30
0.0
 10
-2.28323
 20
10.41752
 30
0.0
 10
-2.28323
 20
10.41752
 30
0.0
 10
-2.00948
 20
10.40069
 30
0.0
 10
-1.72383
 20
10.40911
 30
0.0
 10
-1.45009
 20
10.40911
 30
0.0
 10
-1.45009
 20
10.40911
 30
0.0
 10
-1.45009
 20
10.40911
 30
0.0
 10
-0.71216
 20
10.40911
 30
0.0
 10
-0.71216
 20
10.40911
 30
0.0
 10
-0.71216
 20
10.40911
 30
0.0
 10
-0.68836
 20
10.40911
 30
0.0
 10
-0.67645
 20
10.41752
 30
0.0
 10
-0.6586
 20
10.41752
 30
0.0
 10
-0.6586
 20
10.41752
 30
0.0
 10
-0.62885
 20
10.43436
 30
0.0
 10
-0.62885
 20
10.41752
 30
0.0
 10
-0.62885
 20
10.51013
 30
0.0
 10
-0.62885
 20
10.51013
 30
0.0
 10
-0.62885
 20
10.51013
 30
0.0
 10
-7.32969
 20
10.51013
 30
0.0
 10
-7.32969
 20
10.51013
 30
0.0
 10
-7.32969
 20
10.51013
 30
0.0
 10
-7.32969
 20
10.51013
 30
0.0
 10
-7.32969
 20
10.42594
 30
0.0
 10
-7.32969
 20
10.42594
 30
0.0
  0
SPLINE
  5
106
330
1F
100
AcDbEntity
  8
Warstwa 1
 62
     7
100
AcDbSpline
210
0.0
220
0.0
230
1.0
 70
    11
 71
     3
 72
    20
 73
    16
 74
     0
 42
0.0000000001
 43
0.0000000001
 40
0.0
 40
0.0
 40
0.0
 40
0.0
 40
0.2
 40
0.2
 40
0.2
 40
0.2
 40
0.4
 40
0.4
 40
0.4
 40
0.4
 40
0.6
 40
0.6
 40
0.6
 40
0.6
 40
1.0
 40
1.0
 40
1.0
 40
1.0
 10
5.36978
 20
3.01784
 30
0.0
 10
5.36978
 20
3.01784
 30
0.0
 10
6.13151
 20
3.01784
 30
0.0
 10
6.13151
 20
3.01784
 30
0.0
 10
6.13151
 20
3.01784
 30
0.0
 10
6.13151
 20
3.01784
 30
0.0
 10
6.13151
 20
3.15253
 30
0.0
 10
6.13151
 20
3.15253
 30
0.0
 10
6.13151
 20
3.15253
 30
0.0
 10
6.13151
 20
3.15253
 30
0.0
 10
5.36978
 20
3.15253
 30
0.0
 10
5.36978
 20
3.15253
 30
0.0
 10
5.36978
 20
3.15253
 30
0.0
 10
5.36978
 20
3.15253
 30
0.0
 10
5.36978
 20
3.01784
 30
0.0
 10
5.36978
 20
3.01784
 30
0.0
  0
SPLINE
  5
107
330
1F
100
AcDbEntity
  8
Warstwa 1
 62
     7
100
AcDbSpline
210
0.0
220
0.0
230
1.0
 70
    11
 71
     3
 72
    24
 73
    20
 74
     0
 42
0.0000000001
 43
0.0000000001
 40
0.0
 40
0.0
 40
0.0
 40
0.0
 40
0.1666666666666667
 40
0.1666666666666667
 40
0.1666666666666667
 40
0.1666666666666667
 40
0.3333333333333333
 40
0.3333333333333333
 40
0.3333333333333333
 40
0.3333333333333333
 40
0.5
 40
0.5
 40
0.5
 40
0.5
 40
0.6666666666666666
 40
0.6666666666666666
 40
0.6666666666666666
 40
0.6666666666666666
 40
1.0
 40
1.0
 40
1.0
 40
1.0
 10
2.85845
 20
3.04309
 30
0.0
 10
2.85845
 20
3.04309
 30
0.0
 10
3.22146
 20
3.04309
 30
0.0
 10
3.22146
 20
3.04309
 30
0.0
 10
3.22146
 20
3.04309
 30
0.0
 10
3.26907
 20
3.03467
 30
0.0
 10
3.25122
 20
3.01784
 30
0.0
 10
3.32263
 20
3.01784
 30
0.0
 10
3.32263
 20
3.01784
 30
0.0
 10
3.32263
 20
3.01784
 30
0.0
 10
3.32263
 20
3.15253
 30
0.0
 10
3.32263
 20
3.15253
 30
0.0
 10
3.32263
 20
3.15253
 30
0.0
 10
3.32263
 20
3.15253
 30
0.0
 10
2.8644
 20
3.15253
 30
0.0
 10
2.8644
 20
3.15253
 30
0.0
 10
2.8644
 20
3.15253
 30
0.0
 10
2.8644
 20
3.15253
 30
0.0
 10
2.85845
 20
3.04309
 30
0.0
 10
2.85845
 20
3.04309
 30
0.0
  0
SPLINE
  5
108
330
1F
100
AcDbEntity
  8
Warstwa 1
 62
     7
100
AcDbSpline
210
0.0
220
0.0
230
1.0
 70
    11
 71
     3
 72
    20
 73
    16
 74
     0
 42
0.0000000001
 43
0.0000000001
 40
0.0
 40
0.0
 40
0.0
 40
0.0
 40
0.2
 40
0.2
 40
0.2
 40
0.2
 40
0.4
 40
0.4
 40
0.4
 40
0.4
 40
0.6
 40
0.6
 40
0.6
 40
0.6
 40
1.0
 40
1.0
 40
1.0
 40
1.0
 10
5.42929
 20
3.1862
 30
0.0
 10
5.42929
 20
3.1862
 30
0.0
 10
6.08985
 20
3.1862
 30
0.0
 10
6.08985
 20
3.1862
 30
0.0
 10
6.08985
 20
3.1862
 30
0.0
 10
6.12556
 20
3.19462
 30
0.0
 10
6.1077
 20
3.1862
 30
0.0
 10
6.12556
 20
3.20304
 30
0.0
 10
6.12556
 20
3.20304
 30
0.0
 10
6.12556
 20
3.20304
 30
0.0
 10
5.37573
 20
3.20304
 30
0.0
 10
5.37573
 20
3.20304
 30
0.0
 10
5.37573
 20
3.20304
 30
0.0
 10
5.38763
 20
3.19462
 30
0.0
 10
5.36978
 20
3.1862
 30
0.0
 10
5.42929
 20
3.1862
 30
0.0
  0
SPLINE
  5
109
330
1F
100
AcDbEntity
  8
Warstwa 1
 62
     7
100
AcDbSpline
210
0.0
220
0.0
230
1.0
 70
    11
 71
     3
 72
    28
 73
    24
 74
     0
 42
0.0000000001
 43
0.0000000001
 40
0.0
 40
0.0
 40
0.0
 40
0.0
 40
0.1428571428571428
 40
0.1428571428571428
 40
0.1428571428571428
 40
0.1428571428571428
 40
0.2857142857142857
 40
0.2857142857142857
 40
0.2857142857142857
 40
0.2857142857142857
 40
0.4285714285714285
 40
0.4285714285714285
 40
0.4285714285714285
 40
0.4285714285714285
 40
0.5714285714285714
 40
0.5714285714285714
 40
0.5714285714285714
 40
0.5714285714285714
 40
0.7142857142857143
 40
0.7142857142857143
 40
0.7142857142857143
 40
0.7142857142857143
 40
1.0
 40
1.0
 40
1.0
 40
1.0
 10
2.81679
 20
3.1862
 30
0.0
 10
2.87035
 20
3.16095
 30
0.0
 10
2.76918
 20
3.1862
 30
0.0
 10
2.82869
 20
3.1862
 30
0.0
 10
2.82869
 20
3.1862
 30
0.0
 10
2.82869
 20
3.1862
 30
0.0
 10
3.31668
 20
3.19462
 30
0.0
 10
3.31668
 20
3.19462
 30
0.0
 10
3.31668
 20
3.19462
 30
0.0
 10
3.29882
 20
3.21146
 30
0.0
 10
3.32263
 20
3.20304
 30
0.0
 10
3.27502
 20
3.20304
 30
0.0
 10
3.27502
 20
3.20304
 30
0.0
 10
3.25717
 20
3.21146
 30
0.0
 10
3.22741
 20
3.20304
 30
0.0
 10
3.20956
 20
3.20304
 30
0.0
 10
3.20956
 20
3.20304
 30
0.0
 10
3.20956
 20
3.20304
 30
0.0
 10
2.87035
 20
3.21146
 30
0.0
 10
2.87035
 20
3.21146
 30
0.0
 10
2.87035
 20
3.21146
 30
0.0
 10
2.81679
 20
3.20304
 30
0.0
 10
2.82869
 20
3.20304
 30
0.0
 10
2.81679
 20
3.1862
 30
0.0
  0
SPLINE
  5
10A
330
1F
100
AcDbEntity
  8
Warstwa 1
 62
     7
100
AcDbSpline
210
0.0
220
0.0
230
1.0
 70
    11
 71
     3
 72
    20
 73
    16
 74
     0
 42
0.0000000001
 43
0.0000000001
 40
0.0
 40
0.0
 40
0.0
 40
0.0
 40
0.2
 40
0.2
 40
0.2
 40
0.2
 40
0.4
 40
0.4
 40
0.4
 40
0.4
 40
0.6
 40
0.6
 40
0.6
 40
0.6
 40
1.0
 40
1.0
 40
1.0
 40
1.0
 10
8.35719
 20
2.78212
 30
0.0
 10
8.35719
 20
2.78212
 30
0.0
 10
8.27387
 20
2.78212
 30
0.0
 10
8.27387
 20
2.78212
 30
0.0
 10
8.27387
 20
2.78212
 30
0.0
 10
8.27387
 20
2.78212
 30
0.0
 10
8.26197
 20
2.74003
 30
0.0
 10
8.26197
 20
2.74003
 30
0.0
 10
8.26197
 20
2.74003
 30
0.0
 10
8.26197
 20
2.74003
 30
0.0
 10
8.35719
 20
2.74003
 30
0.0
 10
8.35719
 20
2.74003
 30
0.0
 10
8.35719
 20
2.74003
 30
0.0
 10
8.35719
 20
2.74003
 30
0.0
 10
8.35719
 20
2.78212
 30
0.0
 10
8.35719
 20
2.78212
 30
0.0
  0
SPLINE
  5
10B
330
1F
100
AcDbEntity
  8
Warstwa 1
 62
     7
100
AcDbSpline
210
0.0
220
0.0
230
1.0
 70
    11
 71
     3
 72
    20
 73
    16
 74
     0
 42
0.0000000001
 43
0.0000000001
 40
0.0
 40
0.0
 40
0.0
 40
0.0
 40
0.2
 40
0.2
 40
0.2
 40
0.2
 40
0.4
 40
0.4
 40
0.4
 40
0.4
 40
0.6
 40
0.6
 40
0.6
 40
0.6
 40
1.0
 40
1.0
 40
1.0
 40
1.0
 10
8.27387
 20
2.78212
 30
0.0
 10
8.27387
 20
2.78212
 30
0.0
 10
8.35719
 20
2.78212
 30
0.0
 10
8.35719
 20
2.78212
 30
0.0
 10
8.35719
 20
2.78212
 30
0.0
 10
8.35719
 20
2.78212
 30
0.0
 10
8.33933
 20
2.79896
 30
0.0
 10
8.33933
 20
2.79896
 30
0.0
 10
8.33933
 20
2.79896
 30
0.0
 10
8.33933
 20
2.79896
 30
0.0
 10
8.30363
 20
2.79896
 30
0.0
 10
8.30363
 20
2.79896
 30
0.0
 10
8.30363
 20
2.79896
 30
0.0
 10
8.26792
 20
2.79054
 30
0.0
 10
8.29173
 20
2.79896
 30
0.0
 10
8.27387
 20
2.78212
 30
0.0
  0
SPLINE
  5
10C
330
1F
100
AcDbEntity
  8
Warstwa 1
 62
   251
100
AcDbSpline
210
0.0
220
0.0
230
1.0
 70
    11
 71
     3
 72
    20
 73
    16
 74
     0
 42
0.0000000001
 43
0.0000000001
 40
0.0
 40
0.0
 40
0.0
 40
0.0
 40
0.2
 40
0.2
 40
0.2
 40
0.2
 40
0.4
 40
0.4
 40
0.4
 40
0.4
 40
0.6
 40
0.6
 40
0.6
 40
0.6
 40
1.0
 40
1.0
 40
1.0
 40
1.0
 10
3.23336
 20
-5.00481
 30
0.0
 10
3.23336
 20
-5.00481
 30
0.0
 10
3.25122
 20
-5.03006
 30
0.0
 10
3.25122
 20
-5.03006
 30
0.0
 10
3.25122
 20
-5.03006
 30
0.0
 10
3.25122
 20
-5.01323
 30
0.0
 10
3.25717
 20
-5.01323
 30
0.0
 10
3.25122
 20
-4.99639
 30
0.0
 10
3.25122
 20
-4.99639
 30
0.0
 10
3.24527
 20
-4.97114
 30
0.0
 10
3.24527
 20
-4.97955
 30
0.0
 10
3.23931
 20
-4.97114
 30
0.0
 10
3.23931
 20
-4.97114
 30
0.0
 10
3.23931
 20
-4.97114
 30
0.0
 10
3.23336
 20
-5.00481
 30
0.0
 10
3.23336
 20
-5.00481
 30
0.0
  0
ELLIPSE
  5
10D
330
1F
100
AcDbEntity
  8
Warstwa 1
 62
     7
370
    50
100
AcDbEllipse
 10
-6.42963
 20
9.29414
 30
0.0
 11
0.0
 21
0.98585
 31
0.0
210
0.0
220
0.0
230
1.0
 40
1.0
 41
0.0
 42
6.283185307179586
  0
ELLIPSE
  5
10E
330
1F
100
AcDbEntity
  8
Warstwa 1
 62
     7
370
    25
100
AcDbEllipse
 10
-6.42963
 20
9.29414
 30
0.0
 11
0.0
 21
0.88129
 31
0.0
210
0.0
220
0.0
230
1.0
 40
1.0
 41
0.0
 42
6.283185307179586
  0
ELLIPSE
  5
10F
330
1F
100
AcDbEntity
  8
Warstwa 1
 62
     7
370
    50
100
AcDbEllipse
 10
-1.52963
 20
9.29414
 30
0.0
 11
0.0
 21
0.98585
 31
0.0
210
0.0
220
0.0
230
1.0
 40
1.0
 41
0.0
 42
6.283185307179586
  0
ELLIPSE
  5
110
330
1F
100
AcDbEntity
  8
Warstwa 1
 62
     7
370
    25
100
AcDbEllipse
 10
-1.52963
 20
9.29414
 30
0.0
 11
0.0
 21
0.88129
 31
0.0
210
0.0
220
0.0
230
1.0
 40
1.0
 41
0.0
 42
6.283185307179586
  0
ELLIPSE
  5
111
330
1F
100
AcDbEntity
  8
Warstwa 1
 62
     7
370
    50
100
AcDbEllipse
 10
-6.42963
 20
6.49414
 30
0.0
 11
0.0
 21
0.98585
 31
0.0
210
0.0
220
0.0
230
1.0
 40
1.0
 41
0.0
 42
6.283185307179586
  0
ELLIPSE
  5
112
330
1F
100
AcDbEntity
  8
Warstwa 1
 62
     7
370
    25
100
AcDbEllipse
 10
-6.42963
 20
6.49414
 30
0.0
 11
0.0
 21
0.88129
 31
0.0
210
0.0
220
0.0
230
1.0
 40
1.0
 41
0.0
 42
6.283185307179586
  0
ELLIPSE
  5
113
330
1F
100
AcDbEntity
  8
Warstwa 1
 62
     7
370
    50
100
AcDbEllipse
 10
-1.52963
 20
6.49414
 30
0.0
 11
0.0
 21
0.98585
 31
0.0
210
0.0
220
0.0
230
1.0
 40
1.0
 41
0.0
 42
6.283185307179586
  0
ELLIPSE
  5
114
330
1F
100
AcDbEntity
  8
Warstwa 1
 62
     7
370
    25
100
AcDbEllipse
 10
-1.52963
 20
6.49414
 30
0.0
 11
0.0
 21
0.88129
 31
0.0
210
0.0
220
0.0
230
1.0
 40
1.0
 41
0.0
 42
6.283185307179586
  0
SPLINE
  5
115
330
1F
100
AcDbEntity
  8
Warstwa 1
 62
     7
100
AcDbSpline
210
0.0
220
0.0
230
1.0
 70
    11
 71
     3
 72
    32
 73
    28
 74
     0
 42
0.0000000001
 43
0.0000000001
 40
0.0
 40
0.0
 40
0.0
 40
0.0
 40
0.125
 40
0.125
 40
0.125
 40
0.125
 40
0.25
 40
0.25
 40
0.25
 40
0.25
 40
0.375
 40
0.375
 40
0.375
 40
0.375
 40
0.5
 40
0.5
 40
0.5
 40
0.5
 40
0.625
 40
0.625
 40
0.625
 40
0.625
 40
0.75
 40
0.75
 40
0.75
 40
0.75
 40
1.0
 40
1.0
 40
1.0
 40
1.0
 10
-1.77644
 20
0.11793
 30
0.0
 10
-1.77886
 20
0.16766
 30
0.0
 10
-1.78192
 20
0.20103
 30
0.0
 10
-1.78577
 20
0.21055
 30
0.0
 10
-1.78577
 20
0.21055
 30
0.0
 10
-1.80958
 20
0.24422
 30
0.0
 10
-4.65443
 20
0.21897
 30
0.0
 10
-5.077
 20
0.21897
 30
0.0
 10
-5.077
 20
0.21897
 30
0.0
 10
-5.26149
 20
0.21897
 30
0.0
 10
-5.44599
 20
0.21897
 30
0.0
 10
-5.62454
 20
0.21897
 30
0.0
 10
-5.62454
 20
0.21897
 30
0.0
 10
-5.62454
 20
0.21897
 30
0.0
 10
-6.04115
 20
0.21897
 30
0.0
 10
-6.04115
 20
0.21897
 30
0.0
 10
-6.04115
 20
0.21897
 30
0.0
 10
-6.12447
 20
0.21897
 30
0.0
 10
-6.15423
 20
0.23581
 30
0.0
 10
-6.16018
 20
0.20213
 30
0.0
 10
-6.16018
 20
0.20213
 30
0.0
 10
-6.16018
 20
0.20213
 30
0.0
 10
-6.16018
 20
0.11793
 30
0.0
 10
-6.16018
 20
0.11793
 30
0.0
 10
-6.16018
 20
0.11793
 30
0.0
 10
-6.16018
 20
0.11793
 30
0.0
 10
-1.77644
 20
0.11793
 30
0.0
 10
-1.77644
 20
0.11793
 30
0.0
  0
SPLINE
  5
116
330
1F
100
AcDbEntity
  8
Warstwa 1
 62
     7
100
AcDbSpline
210
0.0
220
0.0
230
1.0
 70
    11
 71
     3
 72
    28
 73
    24
 74
     0
 42
0.0000000001
 43
0.0000000001
 40
0.0
 40
0.0
 40
0.0
 40
0.0
 40
0.1428571428571428
 40
0.1428571428571428
 40
0.1428571428571428
 40
0.1428571428571428
 40
0.2857142857142857
 40
0.2857142857142857
 40
0.2857142857142857
 40
0.2857142857142857
 40
0.4285714285714285
 40
0.4285714285714285
 40
0.4285714285714285
 40
0.4285714285714285
 40
0.5714285714285714
 40
0.5714285714285714
 40
0.5714285714285714
 40
0.5714285714285714
 40
0.7142857142857143
 40
0.7142857142857143
 40
0.7142857142857143
 40
0.7142857142857143
 40
1.0
 40
1.0
 40
1.0
 40
1.0
 10
-1.82371
 20
0.11793
 30
0.0
 10
-1.82148
 20
0.12004
 30
0.0
 10
-1.8185
 20
0.12214
 30
0.0
 10
-1.81553
 20
0.12635
 30
0.0
 10
-1.81553
 20
0.12635
 30
0.0
 10
-1.81333
 20
0.12842
 30
0.0
 10
-1.81133
 20
0.12986
 30
0.0
 10
-1.80951
 20
0.13081
 30
0.0
 10
-1.80951
 20
0.13081
 30
0.0
 10
-1.79659
 20
0.13761
 30
0.0
 10
-1.79393
 20
0.12
 30
0.0
 10
-1.80958
 20
0.13477
 30
0.0
 10
-1.80958
 20
0.13477
 30
0.0
 10
-1.80958
 20
0.13477
 30
0.0
 10
-1.80951
 20
0.13081
 30
0.0
 10
-1.80951
 20
0.13081
 30
0.0
 10
-1.80951
 20
0.13081
 30
0.0
 10
-1.80951
 20
0.13081
 30
0.0
 10
-1.80927
 20
0.11793
 30
0.0
 10
-1.80927
 20
0.11793
 30
0.0
 10
-1.80927
 20
0.11793
 30
0.0
 10
-1.80927
 20
0.11793
 30
0.0
 10
-1.82371
 20
0.11793
 30
0.0
 10
-1.82371
 20
0.11793
 30
0.0
  0
SPLINE
  5
117
330
1F
100
AcDbEntity
  8
Warstwa 1
 62
     7
100
AcDbSpline
210
0.0
220
0.0
230
1.0
 70
    11
 71
     3
 72
    72
 73
    68
 74
     0
 42
0.0000000001
 43
0.0000000001
 40
0.0
 40
0.0
 40
0.0
 40
0.0
 40
0.0555555555555556
 40
0.0555555555555556
 40
0.0555555555555556
 40
0.0555555555555556
 40
0.1111111111111111
 40
0.1111111111111111
 40
0.1111111111111111
 40
0.1111111111111111
 40
0.1666666666666667
 40
0.1666666666666667
 40
0.1666666666666667
 40
0.1666666666666667
 40
0.2222222222222222
 40
0.2222222222222222
 40
0.2222222222222222
 40
0.2222222222222222
 40
0.2777777777777778
 40
0.2777777777777778
 40
0.2777777777777778
 40
0.2777777777777778
 40
0.3333333333333333
 40
0.3333333333333333
 40
0.3333333333333333
 40
0.3333333333333333
 40
0.3888888888888889
 40
0.3888888888888889
 40
0.3888888888888889
 40
0.3888888888888889
 40
0.4444444444444444
 40
0.4444444444444444
 40
0.4444444444444444
 40
0.4444444444444444
 40
0.5
 40
0.5
 40
0.5
 40
0.5
 40
0.5555555555555556
 40
0.5555555555555556
 40
0.5555555555555556
 40
0.5555555555555556
 40
0.6111111111111112
 40
0.6111111111111112
 40
0.6111111111111112
 40
0.6111111111111112
 40
0.6666666666666666
 40
0.6666666666666666
 40
0.6666666666666666
 40
0.6666666666666666
 40
0.7222222222222222
 40
0.7222222222222222
 40
0.7222222222222222
 40
0.7222222222222222
 40
0.7777777777777778
 40
0.7777777777777778
 40
0.7777777777777778
 40
0.7777777777777778
 40
0.8333333333333334
 40
0.8333333333333334
 40
0.8333333333333334
 40
0.8333333333333334
 40
0.8888888888888888
 40
0.8888888888888888
 40
0.8888888888888888
 40
0.8888888888888888
 40
1.0
 40
1.0
 40
1.0
 40
1.0
 10
-7.5469
 20
-5.05158
 30
0.0
 10
-7.5469
 20
-5.05158
 30
0.0
 10
-0.39906
 20
-5.05158
 30
0.0
 10
-0.39906
 20
-5.05158
 30
0.0
 10
-0.39906
 20
-5.05158
 30
0.0
 10
-0.39906
 20
-5.05158
 30
0.0
 10
-0.39906
 20
-3.94477
 30
0.0
 10
-0.39906
 20
-3.94477
 30
0.0
 10
-0.39906
 20
-3.94477
 30
0.0
 10
-0.39906
 20
-3.94477
 30
0.0
 10
-0.39906
 20
0.11793
 30
0.0
 10
-0.39906
 20
0.11793
 30
0.0
 10
-0.39906
 20
0.11793
 30
0.0
 10
-0.39906
 20
0.11793
 30
0.0
 10
-0.39906
 20
0.12635
 30
0.0
 10
-0.39906
 20
0.12635
 30
0.0
 10
-0.39906
 20
0.12635
 30
0.0
 10
-0.41948
 20
0.12274
 30
0.0
 10
-0.44442
 20
0.12
 30
0.0
 10
-0.47263
 20
0.11793
 30
0.0
 10
-0.47263
 20
0.11793
 30
0.0
 10
-0.47263
 20
0.11793
 30
0.0
 10
-1.07158
 20
0.11793
 30
0.0
 10
-1.07158
 20
0.11793
 30
0.0
 10
-1.07158
 20
0.11793
 30
0.0
 10
-1.29774
 20
0.12635
 30
0.0
 10
-1.51795
 20
0.12635
 30
0.0
 10
-1.74411
 20
0.12635
 30
0.0
 10
-1.74411
 20
0.12635
 30
0.0
 10
-1.74411
 20
0.12635
 30
0.0
 10
-1.74455
 20
0.11793
 30
0.0
 10
-1.74455
 20
0.11793
 30
0.0
 10
-1.74455
 20
0.11793
 30
0.0
 10
-1.74455
 20
0.11793
 30
0.0
 10
-1.77644
 20
0.11793
 30
0.0
 10
-1.77644
 20
0.11793
 30
0.0
 10
-1.77644
 20
0.11793
 30
0.0
 10
-1.77644
 20
0.11793
 30
0.0
 10
-1.80927
 20
0.11793
 30
0.0
 10
-1.80927
 20
0.11793
 30
0.0
 10
-1.80927
 20
0.11793
 30
0.0
 10
-1.80927
 20
0.11793
 30
0.0
 10
-1.82371
 20
0.11793
 30
0.0
 10
-1.82371
 20
0.11793
 30
0.0
 10
-1.82371
 20
0.11793
 30
0.0
 10
-1.82371
 20
0.11793
 30
0.0
 10
-6.16018
 20
0.11793
 30
0.0
 10
-6.16018
 20
0.11793
 30
0.0
 10
-6.16018
 20
0.11793
 30
0.0
 10
-6.16018
 20
0.11793
 30
0.0
 10
-6.19099
 20
0.11793
 30
0.0
 10
-6.19099
 20
0.11793
 30
0.0
 10
-6.19099
 20
0.11793
 30
0.0
 10
-6.19099
 20
0.11793
 30
0.0
 10
-6.18994
 20
0.12635
 30
0.0
 10
-6.18994
 20
0.12635
 30
0.0
 10
-6.18994
 20
0.12635
 30
0.0
 10
-6.18994
 20
0.12635
 30
0.0
 10
-7.5469
 20
0.11793
 30
0.0
 10
-7.5469
 20
0.11793
 30
0.0
 10
-7.5469
 20
0.11793
 30
0.0
 10
-7.5469
 20
0.11793
 30
0.0
 10
-7.5469
 20
-3.94477
 30
0.0
 10
-7.5469
 20
-3.94477
 30
0.0
 10
-7.5469
 20
-3.94477
 30
0.0
 10
-7.5469
 20
-3.94477
 30
0.0
 10
-7.5469
 20
-5.05158
 30
0.0
 10
-7.5469
 20
-5.05158
 30
0.0
  0
SPLINE
  5
118
330
1F
100
AcDbEntity
  8
Warstwa 1
 62
     7
370
    50
100
AcDbSpline
210
0.0
220
0.0
230
1.0
 70
    11
 71
     3
 72
    28
 73
    24
 74
     0
 42
0.0000000001
 43
0.0000000001
 40
0.0
 40
0.0
 40
0.0
 40
0.0
 40
0.1428571428571428
 40
0.1428571428571428
 40
0.1428571428571428
 40
0.1428571428571428
 40
0.2857142857142857
 40
0.2857142857142857
 40
0.2857142857142857
 40
0.2857142857142857
 40
0.4285714285714285
 40
0.4285714285714285
 40
0.4285714285714285
 40
0.4285714285714285
 40
0.5714285714285714
 40
0.5714285714285714
 40
0.5714285714285714
 40
0.5714285714285714
 40
0.7142857142857143
 40
0.7142857142857143
 40
0.7142857142857143
 40
0.7142857142857143
 40
1.0
 40
1.0
 40
1.0
 40
1.0
 10
-1.73667
 20
0.21293
 30
0.0
 10
-1.73667
 20
0.21293
 30
0.0
 10
-1.73667
 20
3.01186
 30
0.0
 10
-1.73667
 20
3.01186
 30
0.0
 10
-1.73667
 20
3.01186
 30
0.0
 10
-1.73667
 20
3.17609
 30
0.0
 10
-1.86979
 20
3.31048
 30
0.0
 10
-2.03249
 20
3.31048
 30
0.0
 10
-2.03249
 20
3.31048
 30
0.0
 10
-2.03249
 20
3.31048
 30
0.0
 10
-5.90029
 20
3.31048
 30
0.0
 10
-5.90029
 20
3.31048
 30
0.0
 10
-5.90029
 20
3.31048
 30
0.0
 10
-6.06299
 20
3.31048
 30
0.0
 10
-6.19611
 20
3.17609
 30
0.0
 10
-6.19611
 20
3.01186
 30
0.0
 10
-6.19611
 20
3.01186
 30
0.0
 10
-6.19611
 20
3.01186
 30
0.0
 10
-6.19611
 20
0.21293
 30
0.0
 10
-6.19611
 20
0.21293
 30
0.0
 10
-6.19611
 20
0.21293
 30
0.0
 10
-6.19611
 20
0.21293
 30
0.0
 10
-1.73667
 20
0.21293
 30
0.0
 10
-1.73667
 20
0.21293
 30
0.0
  0
SPLINE
  5
119
330
1F
100
AcDbEntity
  8
Warstwa 1
 62
   250
370
    25
100
AcDbSpline
210
0.0
220
0.0
230
1.0
 70
     8
 71
     3
 72
    24
 73
    20
 74
     0
 42
0.0000000001
 43
0.0000000001
 40
0.0
 40
0.0
 40
0.0
 40
0.0
 40
0.1666666666666667
 40
0.1666666666666667
 40
0.1666666666666667
 40
0.1666666666666667
 40
0.3333333333333333
 40
0.3333333333333333
 40
0.3333333333333333
 40
0.3333333333333333
 40
0.5
 40
0.5
 40
0.5
 40
0.5
 40
0.6666666666666666
 40
0.6666666666666666
 40
0.6666666666666666
 40
0.6666666666666666
 40
1.0
 40
1.0
 40
1.0
 40
1.0
 10
-6.19096
 20
0.1415
 30
0.0
 10
-6.19096
 20
0.1415
 30
0.0
 10
-6.19096
 20
-2.50172
 30
0.0
 10
-6.19096
 20
-2.50172
 30
0.0
 10
-6.19096
 20
-2.50172
 30
0.0
 10
-6.19096
 20
-2.83176
 30
0.0
 10
-5.9222
 20
-3.10179
 30
0.0
 10
-5.5937
 20
-3.10179
 30
0.0
 10
-5.5937
 20
-3.10179
 30
0.0
 10
-5.5937
 20
-3.10179
 30
0.0
 10
-2.36561
 20
-3.10179
 30
0.0
 10
-2.36561
 20
-3.10179
 30
0.0
 10
-2.36561
 20
-3.10179
 30
0.0
 10
-2.03712
 20
-3.10179
 30
0.0
 10
-1.77012
 20
-2.83176
 30
0.0
 10
-1.76835
 20
-2.50172
 30
0.0
 10
-1.76835
 20
-2.50172
 30
0.0
 10
-1.76835
 20
-2.50172
 30
0.0
 10
-1.75413
 20
0.1415
 30
0.0
 10
-1.75413
 20
0.1415
 30
0.0
  0
SPLINE
  5
11A
330
1F
100
AcDbEntity
  8
Warstwa 1
370
    50
100
AcDbSpline
210
0.0
220
0.0
230
1.0
 70
    11
 71
     3
 72
    20
 73
    16
 74
     0
 42
0.0000000001
 43
0.0000000001
 40
0.0
 40
0.0
 40
0.0
 40
0.0
 40
0.2
 40
0.2
 40
0.2
 40
0.2
 40
0.4
 40
0.4
 40
0.4
 40
0.4
 40
0.6
 40
0.6
 40
0.6
 40
0.6
 40
1.0
 40
1.0
 40
1.0
 40
1.0
 10
-6.65821
 20
-9.35863
 30
0.0
 10
-6.81891
 20
-9.40073
 30
0.0
 10
-6.88437
 20
-9.55228
 30
0.0
 10
-6.84271
 20
-9.68699
 30
0.0
 10
-6.84271
 20
-9.68699
 30
0.0
 10
-6.80105
 20
-9.81328
 30
0.0
 10
-6.68202
 20
-9.91431
 30
0.0
 10
-6.50942
 20
-9.87222
 30
0.0
 10
-6.50942
 20
-9.87222
 30
0.0
 10
-6.39039
 20
-9.83854
 30
0.0
 10
-6.27731
 20
-9.70383
 30
0.0
 10
-6.32492
 20
-9.53544
 30
0.0
 10
-6.32492
 20
-9.53544
 30
0.0
 10
-6.36063
 20
-9.40915
 30
0.0
 10
-6.49157
 20
-9.30812
 30
0.0
 10
-6.65821
 20
-9.35863
 30
0.0
  0
ELLIPSE
  5
11B
330
1F
100
AcDbEntity
  8
Warstwa 1
370
    50
100
AcDbEllipse
 10
-1.38084
 20
-9.61258
 30
0.0
 11
0.0
 21
0.2615
 31
0.0
210
0.0
220
0.0
230
1.0
 40
1.0
 41
0.0
 42
6.283185307179586
  0
LWPOLYLINE
  5
11C
330
1F
100
AcDbEntity
  8
Warstwa 1
 62
     7
100
AcDbPolyline
 90
        5
 70
     1
 43
0.0
 10
6.18128
 20
3.01973
 10
8.12354
 20
3.01973
 10
8.12354
 20
3.36089
 10
6.18128
 20
3.36089
 10
6.18128
 20
3.01973
  0
LWPOLYLINE
  5
11D
330
1F
100
AcDbEntity
  8
Warstwa 1
 62
     7
100
AcDbPolyline
 90
        5
 70
     1
 43
0.0
 10
3.37128
 20
3.01973
 10
5.31354
 20
3.01973
 10
5.31354
 20
3.36089
 10
3.37128
 20
3.36089
 10
3.37128
 20
3.01973
  0
ENDSEC
  0
SECTION
  2
OBJECTS
  0
DICTIONARY
  5
C
330
0
100
AcDbDictionary
281
     1
  3
ACAD_GROUP
350
D
  3
ACAD_LAYOUT
350
1A
  3
ACAD_MATERIAL
350
3B
  3
ACAD_MLEADERSTYLE
350
141
  3
ACAD_MLINESTYLE
350
17
  3
ACAD_PLOTSETTINGS
350
19
  3
ACAD_PLOTSTYLENAME
350
E
  3
ACAD_SCALELIST
350
45
  3
ACAD_TABLESTYLE
350
140
  3
ACAD_VISUALSTYLE
350
2A
  3
AcDbVariableDictionary
350
11E
  0
DICTIONARY
  5
D
102
{ACAD_REACTORS
330
C
102
}
330
C
100
AcDbDictionary
281
     1
  0
DICTIONARY
  5
1A
102
{ACAD_REACTORS
330
C
102
}
330
C
100
AcDbDictionary
281
     1
  3
Layout1
350
1E
  3
Layout2
350
26
  3
Model
350
22
  0
DICTIONARY
  5
3B
102
{ACAD_REACTORS
330
C
102
}
330
C
100
AcDbDictionary
281
     1
  3
ByBlock
350
3D
  3
ByLayer
350
3C
  3
Global
350
3E
  0
DICTIONARY
  5
141
102
{ACAD_REACTORS
330
C
102
}
330
C
100
AcDbDictionary
281
     1
  0
DICTIONARY
  5
17
102
{ACAD_REACTORS
330
C
102
}
330
C
100
AcDbDictionary
281
     1
  3
Standard
350
18
  0
DICTIONARY
  5
19
102
{ACAD_REACTORS
330
C
102
}
330
C
100
AcDbDictionary
281
     1
  0
ACDBDICTIONARYWDFLT
  5
E
102
{ACAD_REACTORS
330
C
102
}
330
C
100
AcDbDictionary
281
     1
  3
Normal
350
F
100
AcDbDictionaryWithDefault
340
F
  0
DICTIONARY
  5
45
102
{ACAD_REACTORS
330
C
102
}
330
C
100
AcDbDictionary
281
     1
  3
A0
350
46
  3
A1
350
47
  3
A2
350
48
  3
A3
350
49
  3
A4
350
4A
  3
A5
350
4B
  3
A6
350
4C
  3
A7
350
4D
  3
A8
350
4E
  3
A9
350
4F
  3
B0
350
50
  3
B1
350
51
  3
B2
350
52
  3
B3
350
53
  3
B4
350
54
  3
B5
350
55
  3
B6
350
56
  3
B7
350
57
  3
B8
350
58
  3
B9
350
59
  3
C0
350
5A
  3
C1
350
5B
  3
C2
350
5C
  3
C3
350
5D
  3
C4
350
5E
  3
C5
350
5F
  3
C6
350
60
  3
C7
350
61
  3
C8
350
62
  3
C9
350
63
  3
D0
350
64
  3
D1
350
65
  3
D2
350
66
  0
DICTIONARY
  5
140
102
{ACAD_REACTORS
330
C
102
}
330
C
100
AcDbDictionary
281
     1
  0
DICTIONARY
  5
2A
102
{ACAD_REACTORS
330
C
102
}
330
C
100
AcDbDictionary
281
     1
  3
2dWireframe
350
2F
  3
3D Hidden
350
31
  3
3dWireframe
350
30
  3
Basic
350
32
  3
Brighten
350
36
  3
ColorChange
350
3A
  3
Conceptual
350
34
  3
Dim
350
35
  3
Facepattern
350
39
  3
Flat
350
2B
  3
FlatWithEdges
350
2C
  3
Gouraud
350
2D
  3
GouraudWithEdges
350
2E
  3
Linepattern
350
38
  3
Realistic
350
33
  3
Thicken
350
37
  0
DICTIONARY
  5
11E
102
{ACAD_REACTORS
330
C
102
}
330
C
100
AcDbDictionary
281
     1
  3
CANNOSCALE
350
11F
  0
LAYOUT
  5
1E
102
{ACAD_REACTORS
330
1A
102
}
330
1A
100
AcDbPlotSettings
  1

  2
none_device
  4

  6

 40
0.0
 41
0.0
 42
0.0
 43
0.0
 44
0.0
 45
0.0
 46
0.0
 47
0.0
 48
0.0
 49
0.0
140
0.0
141
0.0
142
1.0
143
1.0
 70
   688
 72
     0
 73
     0
 74
     5
  7

 75
    16
 76
     0
 77
     2
 78
   300
147
1.0
148
0.0
149
0.0
100
AcDbLayout
  1
Layout1
 70
     1
 71
     1
 10
0.0
 20
0.0
 11
12.0
 21
9.0
 12
0.0
 22
0.0
 32
0.0
 14
1.000000000000000E+20
 24
1.000000000000000E+20
 34
1.000000000000000E+20
 15
-1.000000000000000E+20
 25
-1.000000000000000E+20
 35
-1.000000000000000E+20
146
0.0
 13
0.0
 23
0.0
 33
0.0
 16
1.0
 26
0.0
 36
0.0
 17
0.0
 27
1.0
 37
0.0
 76
     0
330
1B
  0
LAYOUT
  5
26
102
{ACAD_REACTORS
330
1A
102
}
330
1A
100
AcDbPlotSettings
  1

  2
none_device
  4

  6

 40
0.0
 41
0.0
 42
0.0
 43
0.0
 44
0.0
 45
0.0
 46
0.0
 47
0.0
 48
0.0
 49
0.0
140
0.0
141
0.0
142
1.0
143
1.0
 70
   688
 72
     0
 73
     0
 74
     5
  7

 75
    16
 76
     0
 77
     2
 78
   300
147
1.0
148
0.0
149
0.0
100
AcDbLayout
  1
Layout2
 70
     1
 71
     2
 10
0.0
 20
0.0
 11
0.0
 21
0.0
 12
0.0
 22
0.0
 32
0.0
 14
0.0
 24
0.0
 34
0.0
 15
0.0
 25
0.0
 35
0.0
146
0.0
 13
0.0
 23
0.0
 33
0.0
 16
1.0
 26
0.0
 36
0.0
 17
0.0
 27
1.0
 37
0.0
 76
     0
330
23
  0
LAYOUT
  5
22
102
{ACAD_REACTORS
330
1A
102
}
330
1A
100
AcDbPlotSettings
  1

  2
none_device
  4

  6

 40
0.0
 41
0.0
 42
0.0
 43
0.0
 44
0.0
 45
0.0
 46
0.0
 47
0.0
 48
0.0
 49
0.0
140
0.0
141
0.0
142
1.0
143
1.0
 70
  1712
 72
     0
 73
     0
 74
     0
  7

 75
     0
 76
     0
 77
     2
 78
   300
147
1.0
148
0.0
149
0.0
100
AcDbLayout
  1
Model
 70
     1
 71
     0
 10
0.0
 20
0.0
 11
12.0
 21
9.0
 12
0.0
 22
0.0
 32
0.0
 14
-8.91921
 24
-13.09375
 34
0.0
 15
9.49978
 25
11.79736
 35
0.0
146
0.0
 13
0.0
 23
0.0
 33
0.0
 16
1.0
 26
0.0
 36
0.0
 17
0.0
 27
1.0
 37
0.0
 76
     0
330
1F
331
29
  0
MATERIAL
  5
3D
102
{ACAD_REACTORS
330
3B
102
}
330
3B
100
AcDbMaterial
  1
ByBlock
 72
     1
 94
      127
  0
MATERIAL
  5
3C
102
{ACAD_REACTORS
330
3B
102
}
330
3B
100
AcDbMaterial
  1
ByLayer
 72
     1
 94
      127
  0
MATERIAL
  5
3E
102
{ACAD_REACTORS
330
3B
102
}
330
3B
100
AcDbMaterial
  1
Global
 72
     1
 94
      127
  0
MLINESTYLE
  5
18
102
{ACAD_REACTORS
330
17
102
}
330
17
100
AcDbMlineStyle
  2
Standard
 70
     0
  3

 62
   256
 51
90.0
 52
90.0
 71
     2
 49
0.5
 62
   256
  6
BYLAYER
 49
-0.5
 62
   256
  6
BYLAYER
  0
ACDBPLACEHOLDER
  5
F
102
{ACAD_REACTORS
330
E
102
}
330
E
  0
SCALE
  5
46
102
{ACAD_REACTORS
330
45
102
}
330
45
100
AcDbScale
 70
     0
300
1:1
140
1.0
141
1.0
290
     1
  0
SCALE
  5
47
102
{ACAD_REACTORS
330
45
102
}
330
45
100
AcDbScale
 70
     0
300
1:2
140
1.0
141
2.0
290
     0
  0
SCALE
  5
48
102
{ACAD_REACTORS
330
45
102
}
330
45
100
AcDbScale
 70
     0
300
1:4
140
1.0
141
4.0
290
     0
  0
SCALE
  5
49
102
{ACAD_REACTORS
330
45
102
}
330
45
100
AcDbScale
 70
     0
300
1:5
140
1.0
141
5.0
290
     0
  0
SCALE
  5
4A
102
{ACAD_REACTORS
330
45
102
}
330
45
100
AcDbScale
 70
     0
300
1:8
140
1.0
141
8.0
290
     0
  0
SCALE
  5
4B
102
{ACAD_REACTORS
330
45
102
}
330
45
100
AcDbScale
 70
     0
300
1:10
140
1.0
141
10.0
290
     0
  0
SCALE
  5
4C
102
{ACAD_REACTORS
330
45
102
}
330
45
100
AcDbScale
 70
     0
300
1:16
140
1.0
141
16.0
290
     0
  0
SCALE
  5
4D
102
{ACAD_REACTORS
330
45
102
}
330
45
100
AcDbScale
 70
     0
300
1:20
140
1.0
141
20.0
290
     0
  0
SCALE
  5
4E
102
{ACAD_REACTORS
330
45
102
}
330
45
100
AcDbScale
 70
     0
300
1:30
140
1.0
141
30.0
290
     0
  0
SCALE
  5
4F
102
{ACAD_REACTORS
330
45
102
}
330
45
100
AcDbScale
 70
     0
300
1:40
140
1.0
141
40.0
290
     0
  0
SCALE
  5
50
102
{ACAD_REACTORS
330
45
102
}
330
45
100
AcDbScale
 70
     0
300
1:50
140
1.0
141
50.0
290
     0
  0
SCALE
  5
51
102
{ACAD_REACTORS
330
45
102
}
330
45
100
AcDbScale
 70
     0
300
1:100
140
1.0
141
100.0
290
     0
  0
SCALE
  5
52
102
{ACAD_REACTORS
330
45
102
}
330
45
100
AcDbScale
 70
     0
300
2:1
140
2.0
141
1.0
290
     0
  0
SCALE
  5
53
102
{ACAD_REACTORS
330
45
102
}
330
45
100
AcDbScale
 70
     0
300
4:1
140
4.0
141
1.0
290
     0
  0
SCALE
  5
54
102
{ACAD_REACTORS
330
45
102
}
330
45
100
AcDbScale
 70
     0
300
8:1
140
8.0
141
1.0
290
     0
  0
SCALE
  5
55
102
{ACAD_REACTORS
330
45
102
}
330
45
100
AcDbScale
 70
     0
300
10:1
140
10.0
141
1.0
290
     0
  0
SCALE
  5
56
102
{ACAD_REACTORS
330
45
102
}
330
45
100
AcDbScale
 70
     0
300
100:1
140
100.0
141
1.0
290
     0
  0
SCALE
  5
57
102
{ACAD_REACTORS
330
45
102
}
330
45
100
AcDbScale
 70
     0
300
1/128" = 1'-0"
140
0.0078125
141
12.0
290
     0
  0
SCALE
  5
58
102
{ACAD_REACTORS
330
45
102
}
330
45
100
AcDbScale
 70
     0
300
1/64" = 1'-0"
140
0.015625
141
12.0
290
     0
  0
SCALE
  5
59
102
{ACAD_REACTORS
330
45
102
}
330
45
100
AcDbScale
 70
     0
300
1/32" = 1'-0"
140
0.03125
141
12.0
290
     0
  0
SCALE
  5
5A
102
{ACAD_REACTORS
330
45
102
}
330
45
100
AcDbScale
 70
     0
300
1/16" = 1'-0"
140
0.0625
141
12.0
290
     0
  0
SCALE
  5
5B
102
{ACAD_REACTORS
330
45
102
}
330
45
100
AcDbScale
 70
     0
300
3/32" = 1'-0"
140
0.09375
141
12.0
290
     0
  0
SCALE
  5
5C
102
{ACAD_REACTORS
330
45
102
}
330
45
100
AcDbScale
 70
     0
300
1/8" = 1'-0"
140
0.125
141
12.0
290
     0
  0
SCALE
  5
5D
102
{ACAD_REACTORS
330
45
102
}
330
45
100
AcDbScale
 70
     0
300
3/16" = 1'-0"
140
0.1875
141
12.0
290
     0
  0
SCALE
  5
5E
102
{ACAD_REACTORS
330
45
102
}
330
45
100
AcDbScale
 70
     0
300
1/4" = 1'-0"
140
0.25
141
12.0
290
     0
  0
SCALE
  5
5F
102
{ACAD_REACTORS
330
45
102
}
330
45
100
AcDbScale
 70
     0
300
3/8" = 1'-0"
140
0.375
141
12.0
290
     0
  0
SCALE
  5
60
102
{ACAD_REACTORS
330
45
102
}
330
45
100
AcDbScale
 70
     0
300
1/2" = 1'-0"
140
0.5
141
12.0
290
     0
  0
SCALE
  5
61
102
{ACAD_REACTORS
330
45
102
}
330
45
100
AcDbScale
 70
     0
300
3/4" = 1'-0"
140
0.75
141
12.0
290
     0
  0
SCALE
  5
62
102
{ACAD_REACTORS
330
45
102
}
330
45
100
AcDbScale
 70
     0
300
1" = 1'-0"
140
1.0
141
12.0
290
     0
  0
SCALE
  5
63
102
{ACAD_REACTORS
330
45
102
}
330
45
100
AcDbScale
 70
     0
300
1-1/2" = 1'-0"
140
1.5
141
12.0
290
     0
  0
SCALE
  5
64
102
{ACAD_REACTORS
330
45
102
}
330
45
100
AcDbScale
 70
     0
300
3" = 1'-0"
140
3.0
141
12.0
290
     0
  0
SCALE
  5
65
102
{ACAD_REACTORS
330
45
102
}
330
45
100
AcDbScale
 70
     0
300
6" = 1'-0"
140
6.0
141
12.0
290
     0
  0
SCALE
  5
66
102
{ACAD_REACTORS
330
45
102
}
330
45
100
AcDbScale
 70
     0
300
1'-0" = 1'-0"
140
12.0
141
12.0
290
     0
  0
VISUALSTYLE
  5
2F
102
{ACAD_REACTORS
330
2A
102
}
102
{ACAD_XDICTIONARY
360
128
102
}
330
2A
100
AcDbVisualStyle
  2
2dWireframe
 70
     4
 71
     0
 72
     2
 73
     0
 90
        0
 40
-0.6
 41
-30.0
 62
     5
 63
     7
421
 16777215
 74
     1
 91
        4
 64
     7
 65
   257
 75
     1
175
     1
 42
1.0
 92
        0
 66
   257
 43
1.0
 76
     1
 77
     6
 78
     2
 67
     7
 79
     5
170
     0
171
     0
290
     0
174
     0
 93
        1
 44
0.0
173
     0
291
     0
 45
0.0
  0
VISUALSTYLE
  5
31
102
{ACAD_REACTORS
330
2A
102
}
102
{ACAD_XDICTIONARY
360
12C
102
}
330
2A
100
AcDbVisualStyle
  2
3D Hidden
 70
     6
 71
     1
 72
     2
 73
     2
 90
        0
 40
-0.6
 41
-30.0
 62
     5
 63
     7
421
 16777215
 74
     2
 91
        2
 64
     7
 65
   257
 75
     2
175
     1
 42
40.0
 92
        0
 66
   257
 43
1.0
 76
     1
 77
     6
 78
     2
 67
     7
 79
     3
170
     0
171
     0
290
     0
174
     0
 93
        1
 44
0.0
173
     0
291
     0
 45
0.0
  0
VISUALSTYLE
  5
30
102
{ACAD_REACTORS
330
2A
102
}
102
{ACAD_XDICTIONARY
360
12A
102
}
330
2A
100
AcDbVisualStyle
  2
3dWireframe
 70
     5
 71
     0
 72
     2
 73
     0
 90
        0
 40
-0.6
 41
-30.0
 62
     5
 63
     7
421
 16777215
 74
     1
 91
        4
 64
     7
 65
   257
 75
     1
175
     1
 42
1.0
 92
        0
 66
   257
 43
1.0
 76
     1
 77
     6
 78
     2
 67
     7
 79
     5
170
     0
171
     0
290
     0
174
     0
 93
        1
 44
0.0
173
     0
291
     0
 45
0.0
  0
VISUALSTYLE
  5
32
102
{ACAD_REACTORS
330
2A
102
}
102
{ACAD_XDICTIONARY
360
12E
102
}
330
2A
100
AcDbVisualStyle
  2
Basic
 70
     7
 71
     1
 72
     0
 73
     1
 90
        0
 40
-0.6
 41
-30.0
 62
     5
 63
     7
421
 16777215
 74
     0
 91
        4
 64
     7
 65
   257
 75
     1
175
     1
 42
1.0
 92
        8
 66
     7
 43
1.0
 76
     1
 77
     6
 78
     2
 67
     7
 79
     5
170
     0
171
     0
290
     0
174
     0
 93
        1
 44
0.0
173
     0
291
     1
 45
0.0
  0
VISUALSTYLE
  5
36
102
{ACAD_REACTORS
330
2A
102
}
102
{ACAD_XDICTIONARY
360
136
102
}
330
2A
100
AcDbVisualStyle
  2
Brighten
 70
    12
 71
     2
 72
     2
 73
     0
 90
        0
 40
-0.6
 41
-30.0
 62
     5
 63
     7
421
 16777215
 74
     1
 91
        4
 64
     7
 65
   257
 75
     1
175
     1
 42
1.0
 92
        8
 66
     7
 43
1.0
 76
     1
 77
     6
 78
     2
 67
     7
 79
     5
170
     0
171
     0
290
     0
174
     0
 93
        1
 44
50.0
173
     0
291
     1
 45
0.0
  0
VISUALSTYLE
  5
3A
102
{ACAD_REACTORS
330
2A
102
}
102
{ACAD_XDICTIONARY
360
13E
102
}
330
2A
100
AcDbVisualStyle
  2
ColorChange
 70
    16
 71
     2
 72
     2
 73
     3
 90
        0
 40
-0.6
 41
-30.0
 62
     5
 63
     8
421
  8421504
 74
     1
 91
        4
 64
     7
 65
   257
 75
     1
175
     1
 42
1.0
 92
        8
 66
     8
424
  8421504
 43
1.0
 76
     1
 77
     6
 78
     2
 67
     7
 79
     5
170
     0
171
     0
290
     0
174
     0
 93
        1
 44
0.0
173
     0
291
     1
 45
0.0
  0
VISUALSTYLE
  5
34
102
{ACAD_REACTORS
330
2A
102
}
102
{ACAD_XDICTIONARY
360
132
102
}
330
2A
100
AcDbVisualStyle
  2
Conceptual
 70
     9
 71
     3
 72
     2
 73
     0
 90
        0
 40
-0.6
 41
-30.0
 62
     5
 63
     7
421
 16777215
 74
     2
 91
        2
 64
     7
 65
   257
 75
     1
175
     1
 42
40.0
 92
        8
 66
     7
 43
1.0
 76
     1
 77
     6
 78
     2
 67
     7
 79
     3
170
     0
171
     0
290
     0
174
     0
 93
        1
 44
0.0
173
     0
291
     0
 45
0.0
  0
VISUALSTYLE
  5
35
102
{ACAD_REACTORS
330
2A
102
}
102
{ACAD_XDICTIONARY
360
134
102
}
330
2A
100
AcDbVisualStyle
  2
Dim
 70
    11
 71
     2
 72
     2
 73
     0
 90
        0
 40
-0.6
 41
-30.0
 62
     5
 63
     7
421
 16777215
 74
     1
 91
        4
 64
     7
 65
   257
 75
     1
175
     1
 42
1.0
 92
        8
 66
     7
 43
1.0
 76
     1
 77
     6
 78
     2
 67
     7
 79
     5
170
     0
171
     0
290
     0
174
     0
 93
        1
 44
-50.0
173
     0
291
     1
 45
0.0
  0
VISUALSTYLE
  5
39
102
{ACAD_REACTORS
330
2A
102
}
102
{ACAD_XDICTIONARY
360
13C
102
}
330
2A
100
AcDbVisualStyle
  2
Facepattern
 70
    15
 71
     2
 72
     2
 73
     0
 90
        0
 40
-0.6
 41
-30.0
 62
     5
 63
     7
421
 16777215
 74
     1
 91
        4
 64
     7
 65
   257
 75
     1
175
     1
 42
1.0
 92
        8
 66
     7
 43
1.0
 76
     1
 77
     6
 78
     2
 67
     7
 79
     5
170
     0
171
     0
290
     0
174
     0
 93
        1
 44
0.0
173
     0
291
     1
 45
0.0
  0
VISUALSTYLE
  5
2B
102
{ACAD_REACTORS
330
2A
102
}
102
{ACAD_XDICTIONARY
360
120
102
}
330
2A
100
AcDbVisualStyle
  2
Flat
 70
     0
 71
     2
 72
     1
 73
     1
 90
        2
 40
-0.6
 41
30.0
 62
     5
 63
     7
421
 16777215
 74
     0
 91
        4
 64
     7
 65
   257
 75
     1
175
     1
 42
1.0
 92
        8
 66
     7
 43
1.0
 76
     1
 77
     6
 78
     2
 67
     7
 79
     5
170
     0
171
     0
290
     0
174
     0
 93
       13
 44
0.0
173
     0
291
     1
 45
0.0
  0
VISUALSTYLE
  5
2C
102
{ACAD_REACTORS
330
2A
102
}
102
{ACAD_XDICTIONARY
360
122
102
}
330
2A
100
AcDbVisualStyle
  2
FlatWithEdges
 70
     1
 71
     2
 72
     1
 73
     1
 90
        2
 40
-0.6
 41
30.0
 62
     5
 63
     7
421
 16777215
 74
     1
 91
        4
 64
     7
 65
   257
 75
     1
175
     1
 42
1.0
 92
        0
 66
   257
 43
1.0
 76
     1
 77
     6
 78
     2
 67
     7
 79
     5
170
     0
171
     0
290
     0
174
     0
 93
       13
 44
0.0
173
     0
291
     1
 45
0.0
  0
VISUALSTYLE
  5
2D
102
{ACAD_REACTORS
330
2A
102
}
102
{ACAD_XDICTIONARY
360
124
102
}
330
2A
100
AcDbVisualStyle
  2
Gouraud
 70
     2
 71
     2
 72
     2
 73
     1
 90
        2
 40
-0.6
 41
30.0
 62
     5
 63
     7
421
 16777215
 74
     0
 91
        4
 64
     7
 65
   257
 75
     1
175
     1
 42
1.0
 92
        0
 66
     7
 43
1.0
 76
     1
 77
     6
 78
     2
 67
     7
 79
     5
170
     0
171
     0
290
     0
174
     0
 93
       13
 44
0.0
173
     0
291
     1
 45
0.0
  0
VISUALSTYLE
  5
2E
102
{ACAD_REACTORS
330
2A
102
}
102
{ACAD_XDICTIONARY
360
126
102
}
330
2A
100
AcDbVisualStyle
  2
GouraudWithEdges
 70
     3
 71
     2
 72
     2
 73
     1
 90
        2
 40
-0.6
 41
30.0
 62
     5
 63
     7
421
 16777215
 74
     1
 91
        4
 64
     7
 65
   257
 75
     1
175
     1
 42
1.0
 92
        0
 66
   257
 43
1.0
 76
     1
 77
     6
 78
     2
 67
     7
 79
     5
170
     0
171
     0
290
     0
174
     0
 93
       13
 44
0.0
173
     0
291
     1
 45
0.0
  0
VISUALSTYLE
  5
38
102
{ACAD_REACTORS
330
2A
102
}
102
{ACAD_XDICTIONARY
360
13A
102
}
330
2A
100
AcDbVisualStyle
  2
Linepattern
 70
    14
 71
     2
 72
     2
 73
     0
 90
        0
 40
-0.6
 41
-30.0
 62
     5
 63
     7
421
 16777215
 74
     1
 91
        4
 64
     7
 65
   257
 75
     7
175
     7
 42
1.0
 92
        8
 66
     7
 43
1.0
 76
     1
 77
     6
 78
     2
 67
     7
 79
     5
170
     0
171
     0
290
     0
174
     0
 93
        1
 44
0.0
173
     0
291
     1
 45
0.0
  0
VISUALSTYLE
  5
33
102
{ACAD_REACTORS
330
2A
102
}
102
{ACAD_XDICTIONARY
360
130
102
}
330
2A
100
AcDbVisualStyle
  2
Realistic
 70
     8
 71
     2
 72
     2
 73
     0
 90
        0
 40
-0.6
 41
-30.0
 62
     5
 63
     7
421
 16777215
 74
     1
 91
        0
 64
     7
 65
   257
 75
     1
175
     1
 42
1.0
 92
        8
 66
     8
424
  7895160
 43
1.0
 76
     1
 77
     6
 78
     2
 67
     7
 79
     5
170
     0
171
     0
290
     0
174
     0
 93
       13
 44
0.0
173
     0
291
     0
 45
0.0
  0
VISUALSTYLE
  5
37
102
{ACAD_REACTORS
330
2A
102
}
102
{ACAD_XDICTIONARY
360
138
102
}
330
2A
100
AcDbVisualStyle
  2
Thicken
 70
    13
 71
     2
 72
     2
 73
     0
 90
        0
 40
-0.6
 41
-30.0
 62
     5
 63
     7
421
 16777215
 74
     1
 91
        4
 64
     7
 65
   257
 75
     1
175
     1
 42
1.0
 92
       12
 66
     7
 43
1.0
 76
     1
 77
     6
 78
     2
 67
     7
 79
     5
170
     0
171
     0
290
     0
174
     0
 93
        1
 44
0.0
173
     0
291
     1
 45
0.0
  0
DICTIONARYVAR
  5
11F
102
{ACAD_REACTORS
330
11E
102
}
330
11E
100
DictionaryVariables
280
     0
  1
1:1
  0
DICTIONARY
  5
128
330
2F
100
AcDbDictionary
280
     1
281
     1
  3
ACAD_XREC_ROUNDTRIP
360
129
  0
DICTIONARY
  5
12C
330
31
100
AcDbDictionary
280
     1
281
     1
  3
ACAD_XREC_ROUNDTRIP
360
12D
  0
DICTIONARY
  5
12A
330
30
100
AcDbDictionary
280
     1
281
     1
  3
ACAD_XREC_ROUNDTRIP
360
12B
  0
DICTIONARY
  5
12E
330
32
100
AcDbDictionary
280
     1
281
     1
  3
ACAD_XREC_ROUNDTRIP
360
12F
  0
DICTIONARY
  5
136
330
36
100
AcDbDictionary
280
     1
281
     1
  3
ACAD_XREC_ROUNDTRIP
360
137
  0
DICTIONARY
  5
13E
330
3A
100
AcDbDictionary
280
     1
281
     1
  3
ACAD_XREC_ROUNDTRIP
360
13F
  0
DICTIONARY
  5
132
330
34
100
AcDbDictionary
280
     1
281
     1
  3
ACAD_XREC_ROUNDTRIP
360
133
  0
DICTIONARY
  5
134
330
35
100
AcDbDictionary
280
     1
281
     1
  3
ACAD_XREC_ROUNDTRIP
360
135
  0
DICTIONARY
  5
13C
330
39
100
AcDbDictionary
280
     1
281
     1
  3
ACAD_XREC_ROUNDTRIP
360
13D
  0
DICTIONARY
  5
120
330
2B
100
AcDbDictionary
280
     1
281
     1
  3
ACAD_XREC_ROUNDTRIP
360
121
  0
DICTIONARY
  5
122
330
2C
100
AcDbDictionary
280
     1
281
     1
  3
ACAD_XREC_ROUNDTRIP
360
123
  0
DICTIONARY
  5
124
330
2D
100
AcDbDictionary
280
     1
281
     1
  3
ACAD_XREC_ROUNDTRIP
360
125
  0
DICTIONARY
  5
126
330
2E
100
AcDbDictionary
280
     1
281
     1
  3
ACAD_XREC_ROUNDTRIP
360
127
  0
DICTIONARY
  5
13A
330
38
100
AcDbDictionary
280
     1
281
     1
  3
ACAD_XREC_ROUNDTRIP
360
13B
  0
DICTIONARY
  5
130
330
33
100
AcDbDictionary
280
     1
281
     1
  3
ACAD_XREC_ROUNDTRIP
360
131
  0
DICTIONARY
  5
138
330
37
100
AcDbDictionary
280
     1
281
     1
  3
ACAD_XREC_ROUNDTRIP
360
139
  0
XRECORD
  5
129
102
{ACAD_REACTORS
330
128
102
}
330
128
100
AcDbXrecord
280
     1
102
RTVSPropertyOp0
 70
     1
102
RTVSPropertyOp1
 70
     1
102
RTVSPropertyOp2
 70
     1
102
RTVSPropertyOp3
 70
     1
102
RTVSPropertyOp4
 70
     1
102
RTVSPropertyOp5
 70
     1
102
RTVSPropertyOp6
 70
     1
102
RTVSPropertyOp7
 70
     1
102
RTVSPropertyOp8
 70
     1
102
RTVSPropertyOp9
 70
     1
102
RTVSPropertyOp10
 70
     1
102
RTVSPropertyOp11
 70
     1
102
RTVSPropertyOp12
 70
     1
102
RTVSPropertyOp13
 70
     1
102
RTVSPropertyOp14
 70
     1
102
RTVSPropertyOp15
 70
     1
102
RTVSPropertyOp16
 70
     1
102
RTVSPropertyOp17
 70
     1
102
RTVSPropertyOp18
 70
     1
102
RTVSPropertyOp19
 70
     1
102
RTVSPropertyOp20
 70
     1
102
RTVSPropertyOp21
 70
     1
102
RTVSPropertyOp22
 70
     1
102
RTVSPropertyOp23
 70
     1
102
RTVSPropertyOp24
 70
     1
102
RTVSPropertyOp25
 70
     1
102
RTVSPropertyOp26
 70
     1
102
RTVSPropertyOp27
 70
     1
  0
XRECORD
  5
12D
102
{ACAD_REACTORS
330
12C
102
}
330
12C
100
AcDbXrecord
280
     1
102
RTVSPropertyOp0
 70
     1
102
RTVSPropertyOp1
 70
     1
102
RTVSPropertyOp2
 70
     1
102
RTVSPropertyOp3
 70
     1
102
RTVSPropertyOp4
 70
     1
102
RTVSPropertyOp5
 70
     1
102
RTVSPropertyOp6
 70
     1
102
RTVSPropertyOp7
 70
     1
102
RTVSPropertyOp8
 70
     1
102
RTVSPropertyOp9
 70
     1
102
RTVSPropertyOp10
 70
     1
102
RTVSPropertyOp11
 70
     1
102
RTVSPropertyOp12
 70
     1
102
RTVSPropertyOp13
 70
     1
102
RTVSPropertyOp14
 70
     1
102
RTVSPropertyOp15
 70
     1
102
RTVSPropertyOp16
 70
     1
102
RTVSPropertyOp17
 70
     1
102
RTVSPropertyOp18
 70
     1
102
RTVSPropertyOp19
 70
     1
102
RTVSPropertyOp20
 70
     1
102
RTVSPropertyOp21
 70
     1
102
RTVSPropertyOp22
 70
     1
102
RTVSPropertyOp23
 70
     1
102
RTVSPropertyOp24
 70
     1
102
RTVSPropertyOp25
 70
     1
102
RTVSPropertyOp26
 70
     1
102
RTVSPropertyOp27
 70
     1
  0
XRECORD
  5
12B
102
{ACAD_REACTORS
330
12A
102
}
330
12A
100
AcDbXrecord
280
     1
102
RTVSPropertyOp0
 70
     1
102
RTVSPropertyOp1
 70
     1
102
RTVSPropertyOp2
 70
     1
102
RTVSPropertyOp3
 70
     1
102
RTVSPropertyOp4
 70
     1
102
RTVSPropertyOp5
 70
     1
102
RTVSPropertyOp6
 70
     1
102
RTVSPropertyOp7
 70
     1
102
RTVSPropertyOp8
 70
     1
102
RTVSPropertyOp9
 70
     1
102
RTVSPropertyOp10
 70
     1
102
RTVSPropertyOp11
 70
     1
102
RTVSPropertyOp12
 70
     1
102
RTVSPropertyOp13
 70
     1
102
RTVSPropertyOp14
 70
     1
102
RTVSPropertyOp15
 70
     1
102
RTVSPropertyOp16
 70
     1
102
RTVSPropertyOp17
 70
     1
102
RTVSPropertyOp18
 70
     1
102
RTVSPropertyOp19
 70
     1
102
RTVSPropertyOp20
 70
     1
102
RTVSPropertyOp21
 70
     1
102
RTVSPropertyOp22
 70
     1
102
RTVSPropertyOp23
 70
     1
102
RTVSPropertyOp24
 70
     1
102
RTVSPropertyOp25
 70
     1
102
RTVSPropertyOp26
 70
     1
102
RTVSPropertyOp27
 70
     1
  0
XRECORD
  5
12F
102
{ACAD_REACTORS
330
12E
102
}
330
12E
100
AcDbXrecord
280
     1
102
RTVSPropertyOp0
 70
     1
102
RTVSPropertyOp1
 70
     1
102
RTVSPropertyOp2
 70
     1
102
RTVSPropertyOp3
 70
     1
102
RTVSPropertyOp4
 70
     1
102
RTVSPropertyOp5
 70
     1
102
RTVSPropertyOp6
 70
     1
102
RTVSPropertyOp7
 70
     1
102
RTVSPropertyOp8
 70
     1
102
RTVSPropertyOp9
 70
     1
102
RTVSPropertyOp10
 70
     1
102
RTVSPropertyOp11
 70
     1
102
RTVSPropertyOp12
 70
     1
102
RTVSPropertyOp13
 70
     1
102
RTVSPropertyOp14
 70
     1
102
RTVSPropertyOp15
 70
     1
102
RTVSPropertyOp16
 70
     1
102
RTVSPropertyOp17
 70
     1
102
RTVSPropertyOp18
 70
     1
102
RTVSPropertyOp19
 70
     1
102
RTVSPropertyOp20
 70
     1
102
RTVSPropertyOp21
 70
     1
102
RTVSPropertyOp22
 70
     1
102
RTVSPropertyOp23
 70
     1
102
RTVSPropertyOp24
 70
     1
102
RTVSPropertyOp25
 70
     1
102
RTVSPropertyOp26
 70
     1
102
RTVSPropertyOp27
 70
     1
  0
XRECORD
  5
137
102
{ACAD_REACTORS
330
136
102
}
330
136
100
AcDbXrecord
280
     1
102
RTVSPropertyOp0
 70
     1
102
RTVSPropertyOp1
 70
     1
102
RTVSPropertyOp2
 70
     1
102
RTVSPropertyOp3
 70
     1
102
RTVSPropertyOp4
 70
     1
102
RTVSPropertyOp5
 70
     1
102
RTVSPropertyOp6
 70
     1
102
RTVSPropertyOp7
 70
     1
102
RTVSPropertyOp8
 70
     1
102
RTVSPropertyOp9
 70
     1
102
RTVSPropertyOp10
 70
     1
102
RTVSPropertyOp11
 70
     1
102
RTVSPropertyOp12
 70
     1
102
RTVSPropertyOp13
 70
     1
102
RTVSPropertyOp14
 70
     1
102
RTVSPropertyOp15
 70
     1
102
RTVSPropertyOp16
 70
     1
102
RTVSPropertyOp17
 70
     1
102
RTVSPropertyOp18
 70
     1
102
RTVSPropertyOp19
 70
     1
102
RTVSPropertyOp20
 70
     1
102
RTVSPropertyOp21
 70
     1
102
RTVSPropertyOp22
 70
     1
102
RTVSPropertyOp23
 70
     1
102
RTVSPropertyOp24
 70
     1
102
RTVSPropertyOp25
 70
     1
102
RTVSPropertyOp26
 70
     1
102
RTVSPropertyOp27
 70
     1
  0
XRECORD
  5
13F
102
{ACAD_REACTORS
330
13E
102
}
330
13E
100
AcDbXrecord
280
     1
102
RTVSPropertyOp0
 70
     1
102
RTVSPropertyOp1
 70
     1
102
RTVSPropertyOp2
 70
     1
102
RTVSPropertyOp3
 70
     1
102
RTVSPropertyOp4
 70
     1
102
RTVSPropertyOp5
 70
     1
102
RTVSPropertyOp6
 70
     1
102
RTVSPropertyOp7
 70
     1
102
RTVSPropertyOp8
 70
     1
102
RTVSPropertyOp9
 70
     1
102
RTVSPropertyOp10
 70
     1
102
RTVSPropertyOp11
 70
     1
102
RTVSPropertyOp12
 70
     1
102
RTVSPropertyOp13
 70
     1
102
RTVSPropertyOp14
 70
     1
102
RTVSPropertyOp15
 70
     1
102
RTVSPropertyOp16
 70
     1
102
RTVSPropertyOp17
 70
     1
102
RTVSPropertyOp18
 70
     1
102
RTVSPropertyOp19
 70
     1
102
RTVSPropertyOp20
 70
     1
102
RTVSPropertyOp21
 70
     1
102
RTVSPropertyOp22
 70
     1
102
RTVSPropertyOp23
 70
     1
102
RTVSPropertyOp24
 70
     1
102
RTVSPropertyOp25
 70
     1
102
RTVSPropertyOp26
 70
     1
102
RTVSPropertyOp27
 70
     1
  0
XRECORD
  5
133
102
{ACAD_REACTORS
330
132
102
}
330
132
100
AcDbXrecord
280
     1
102
RTVSPropertyOp0
 70
     1
102
RTVSPropertyOp1
 70
     1
102
RTVSPropertyOp2
 70
     1
102
RTVSPropertyOp3
 70
     1
102
RTVSPropertyOp4
 70
     1
102
RTVSPropertyOp5
 70
     1
102
RTVSPropertyOp6
 70
     1
102
RTVSPropertyOp7
 70
     1
102
RTVSPropertyOp8
 70
     1
102
RTVSPropertyOp9
 70
     1
102
RTVSPropertyOp10
 70
     1
102
RTVSPropertyOp11
 70
     1
102
RTVSPropertyOp12
 70
     1
102
RTVSPropertyOp13
 70
     1
102
RTVSPropertyOp14
 70
     1
102
RTVSPropertyOp15
 70
     1
102
RTVSPropertyOp16
 70
     1
102
RTVSPropertyOp17
 70
     1
102
RTVSPropertyOp18
 70
     1
102
RTVSPropertyOp19
 70
     1
102
RTVSPropertyOp20
 70
     1
102
RTVSPropertyOp21
 70
     1
102
RTVSPropertyOp22
 70
     1
102
RTVSPropertyOp23
 70
     1
102
RTVSPropertyOp24
 70
     1
102
RTVSPropertyOp25
 70
     1
102
RTVSPropertyOp26
 70
     1
102
RTVSPropertyOp27
 70
     1
  0
XRECORD
  5
135
102
{ACAD_REACTORS
330
134
102
}
330
134
100
AcDbXrecord
280
     1
102
RTVSPropertyOp0
 70
     1
102
RTVSPropertyOp1
 70
     1
102
RTVSPropertyOp2
 70
     1
102
RTVSPropertyOp3
 70
     1
102
RTVSPropertyOp4
 70
     1
102
RTVSPropertyOp5
 70
     1
102
RTVSPropertyOp6
 70
     1
102
RTVSPropertyOp7
 70
     1
102
RTVSPropertyOp8
 70
     1
102
RTVSPropertyOp9
 70
     1
102
RTVSPropertyOp10
 70
     1
102
RTVSPropertyOp11
 70
     1
102
RTVSPropertyOp12
 70
     1
102
RTVSPropertyOp13
 70
     1
102
RTVSPropertyOp14
 70
     1
102
RTVSPropertyOp15
 70
     1
102
RTVSPropertyOp16
 70
     1
102
RTVSPropertyOp17
 70
     1
102
RTVSPropertyOp18
 70
     1
102
RTVSPropertyOp19
 70
     1
102
RTVSPropertyOp20
 70
     1
102
RTVSPropertyOp21
 70
     1
102
RTVSPropertyOp22
 70
     1
102
RTVSPropertyOp23
 70
     1
102
RTVSPropertyOp24
 70
     1
102
RTVSPropertyOp25
 70
     1
102
RTVSPropertyOp26
 70
     1
102
RTVSPropertyOp27
 70
     1
  0
XRECORD
  5
13D
102
{ACAD_REACTORS
330
13C
102
}
330
13C
100
AcDbXrecord
280
     1
102
RTVSPropertyOp0
 70
     1
102
RTVSPropertyOp1
 70
     1
102
RTVSPropertyOp2
 70
     1
102
RTVSPropertyOp3
 70
     1
102
RTVSPropertyOp4
 70
     1
102
RTVSPropertyOp5
 70
     1
102
RTVSPropertyOp6
 70
     1
102
RTVSPropertyOp7
 70
     1
102
RTVSPropertyOp8
 70
     1
102
RTVSPropertyOp9
 70
     1
102
RTVSPropertyOp10
 70
     1
102
RTVSPropertyOp11
 70
     1
102
RTVSPropertyOp12
 70
     1
102
RTVSPropertyOp13
 70
     1
102
RTVSPropertyOp14
 70
     1
102
RTVSPropertyOp15
 70
     1
102
RTVSPropertyOp16
 70
     1
102
RTVSPropertyOp17
 70
     1
102
RTVSPropertyOp18
 70
     1
102
RTVSPropertyOp19
 70
     1
102
RTVSPropertyOp20
 70
     1
102
RTVSPropertyOp21
 70
     1
102
RTVSPropertyOp22
 70
     1
102
RTVSPropertyOp23
 70
     1
102
RTVSPropertyOp24
 70
     1
102
RTVSPropertyOp25
 70
     1
102
RTVSPropertyOp26
 70
     1
102
RTVSPropertyOp27
 70
     1
  0
XRECORD
  5
121
102
{ACAD_REACTORS
330
120
102
}
330
120
100
AcDbXrecord
280
     1
102
RTVSPropertyOp0
 70
     1
102
RTVSPropertyOp1
 70
     1
102
RTVSPropertyOp2
 70
     1
102
RTVSPropertyOp3
 70
     1
102
RTVSPropertyOp4
 70
     1
102
RTVSPropertyOp5
 70
     1
102
RTVSPropertyOp6
 70
     1
102
RTVSPropertyOp7
 70
     1
102
RTVSPropertyOp8
 70
     1
102
RTVSPropertyOp9
 70
     1
102
RTVSPropertyOp10
 70
     1
102
RTVSPropertyOp11
 70
     1
102
RTVSPropertyOp12
 70
     1
102
RTVSPropertyOp13
 70
     1
102
RTVSPropertyOp14
 70
     1
102
RTVSPropertyOp15
 70
     1
102
RTVSPropertyOp16
 70
     1
102
RTVSPropertyOp17
 70
     1
102
RTVSPropertyOp18
 70
     1
102
RTVSPropertyOp19
 70
     1
102
RTVSPropertyOp20
 70
     1
102
RTVSPropertyOp21
 70
     1
102
RTVSPropertyOp22
 70
     1
102
RTVSPropertyOp23
 70
     1
102
RTVSPropertyOp24
 70
     1
102
RTVSPropertyOp25
 70
     1
102
RTVSPropertyOp26
 70
     1
102
RTVSPropertyOp27
 70
     1
  0
XRECORD
  5
123
102
{ACAD_REACTORS
330
122
102
}
330
122
100
AcDbXrecord
280
     1
102
RTVSPropertyOp0
 70
     1
102
RTVSPropertyOp1
 70
     1
102
RTVSPropertyOp2
 70
     1
102
RTVSPropertyOp3
 70
     1
102
RTVSPropertyOp4
 70
     1
102
RTVSPropertyOp5
 70
     1
102
RTVSPropertyOp6
 70
     1
102
RTVSPropertyOp7
 70
     1
102
RTVSPropertyOp8
 70
     1
102
RTVSPropertyOp9
 70
     1
102
RTVSPropertyOp10
 70
     1
102
RTVSPropertyOp11
 70
     1
102
RTVSPropertyOp12
 70
     1
102
RTVSPropertyOp13
 70
     1
102
RTVSPropertyOp14
 70
     1
102
RTVSPropertyOp15
 70
     1
102
RTVSPropertyOp16
 70
     1
102
RTVSPropertyOp17
 70
     1
102
RTVSPropertyOp18
 70
     1
102
RTVSPropertyOp19
 70
     1
102
RTVSPropertyOp20
 70
     1
102
RTVSPropertyOp21
 70
     1
102
RTVSPropertyOp22
 70
     1
102
RTVSPropertyOp23
 70
     1
102
RTVSPropertyOp24
 70
     1
102
RTVSPropertyOp25
 70
     1
102
RTVSPropertyOp26
 70
     1
102
RTVSPropertyOp27
 70
     1
  0
XRECORD
  5
125
102
{ACAD_REACTORS
330
124
102
}
330
124
100
AcDbXrecord
280
     1
102
RTVSPropertyOp0
 70
     1
102
RTVSPropertyOp1
 70
     1
102
RTVSPropertyOp2
 70
     1
102
RTVSPropertyOp3
 70
     1
102
RTVSPropertyOp4
 70
     1
102
RTVSPropertyOp5
 70
     1
102
RTVSPropertyOp6
 70
     1
102
RTVSPropertyOp7
 70
     1
102
RTVSPropertyOp8
 70
     1
102
RTVSPropertyOp9
 70
     1
102
RTVSPropertyOp10
 70
     1
102
RTVSPropertyOp11
 70
     1
102
RTVSPropertyOp12
 70
     1
102
RTVSPropertyOp13
 70
     1
102
RTVSPropertyOp14
 70
     1
102
RTVSPropertyOp15
 70
     1
102
RTVSPropertyOp16
 70
     1
102
RTVSPropertyOp17
 70
     1
102
RTVSPropertyOp18
 70
     1
102
RTVSPropertyOp19
 70
     1
102
RTVSPropertyOp20
 70
     1
102
RTVSPropertyOp21
 70
     1
102
RTVSPropertyOp22
 70
     1
102
RTVSPropertyOp23
 70
     1
102
RTVSPropertyOp24
 70
     1
102
RTVSPropertyOp25
 70
     1
102
RTVSPropertyOp26
 70
     1
102
RTVSPropertyOp27
 70
     1
  0
XRECORD
  5
127
102
{ACAD_REACTORS
330
126
102
}
330
126
100
AcDbXrecord
280
     1
102
RTVSPropertyOp0
 70
     1
102
RTVSPropertyOp1
 70
     1
102
RTVSPropertyOp2
 70
     1
102
RTVSPropertyOp3
 70
     1
102
RTVSPropertyOp4
 70
     1
102
RTVSPropertyOp5
 70
     1
102
RTVSPropertyOp6
 70
     1
102
RTVSPropertyOp7
 70
     1
102
RTVSPropertyOp8
 70
     1
102
RTVSPropertyOp9
 70
     1
102
RTVSPropertyOp10
 70
     1
102
RTVSPropertyOp11
 70
     1
102
RTVSPropertyOp12
 70
     1
102
RTVSPropertyOp13
 70
     1
102
RTVSPropertyOp14
 70
     1
102
RTVSPropertyOp15
 70
     1
102
RTVSPropertyOp16
 70
     1
102
RTVSPropertyOp17
 70
     1
102
RTVSPropertyOp18
 70
     1
102
RTVSPropertyOp19
 70
     1
102
RTVSPropertyOp20
 70
     1
102
RTVSPropertyOp21
 70
     1
102
RTVSPropertyOp22
 70
     1
102
RTVSPropertyOp23
 70
     1
102
RTVSPropertyOp24
 70
     1
102
RTVSPropertyOp25
 70
     1
102
RTVSPropertyOp26
 70
     1
102
RTVSPropertyOp27
 70
     1
  0
XRECORD
  5
13B
102
{ACAD_REACTORS
330
13A
102
}
330
13A
100
AcDbXrecord
280
     1
102
RTVSPropertyOp0
 70
     1
102
RTVSPropertyOp1
 70
     1
102
RTVSPropertyOp2
 70
     1
102
RTVSPropertyOp3
 70
     1
102
RTVSPropertyOp4
 70
     1
102
RTVSPropertyOp5
 70
     1
102
RTVSPropertyOp6
 70
     1
102
RTVSPropertyOp7
 70
     1
102
RTVSPropertyOp8
 70
     1
102
RTVSPropertyOp9
 70
     1
102
RTVSPropertyOp10
 70
     1
102
RTVSPropertyOp11
 70
     1
102
RTVSPropertyOp12
 70
     1
102
RTVSPropertyOp13
 70
     1
102
RTVSPropertyOp14
 70
     1
102
RTVSPropertyOp15
 70
     1
102
RTVSPropertyOp16
 70
     1
102
RTVSPropertyOp17
 70
     1
102
RTVSPropertyOp18
 70
     1
102
RTVSPropertyOp19
 70
     1
102
RTVSPropertyOp20
 70
     1
102
RTVSPropertyOp21
 70
     1
102
RTVSPropertyOp22
 70
     1
102
RTVSPropertyOp23
 70
     1
102
RTVSPropertyOp24
 70
     1
102
RTVSPropertyOp25
 70
     1
102
RTVSPropertyOp26
 70
     1
102
RTVSPropertyOp27
 70
     1
  0
XRECORD
  5
131
102
{ACAD_REACTORS
330
130
102
}
330
130
100
AcDbXrecord
280
     1
102
RTVSPropertyOp0
 70
     1
102
RTVSPropertyOp1
 70
     1
102
RTVSPropertyOp2
 70
     1
102
RTVSPropertyOp3
 70
     1
102
RTVSPropertyOp4
 70
     1
102
RTVSPropertyOp5
 70
     1
102
RTVSPropertyOp6
 70
     1
102
RTVSPropertyOp7
 70
     1
102
RTVSPropertyOp8
 70
     1
102
RTVSPropertyOp9
 70
     1
102
RTVSPropertyOp10
 70
     1
102
RTVSPropertyOp11
 70
     1
102
RTVSPropertyOp12
 70
     1
102
RTVSPropertyOp13
 70
     1
102
RTVSPropertyOp14
 70
     1
102
RTVSPropertyOp15
 70
     1
102
RTVSPropertyOp16
 70
     1
102
RTVSPropertyOp17
 70
     1
102
RTVSPropertyOp18
 70
     1
102
RTVSPropertyOp19
 70
     1
102
RTVSPropertyOp20
 70
     1
102
RTVSPropertyOp21
 70
     1
102
RTVSPropertyOp22
 70
     1
102
RTVSPropertyOp23
 70
     1
102
RTVSPropertyOp24
 70
     1
102
RTVSPropertyOp25
 70
     1
102
RTVSPropertyOp26
 70
     1
102
RTVSPropertyOp27
 70
     1
  0
XRECORD
  5
139
102
{ACAD_REACTORS
330
138
102
}
330
138
100
AcDbXrecord
280
     1
102
RTVSPropertyOp0
 70
     1
102
RTVSPropertyOp1
 70
     1
102
RTVSPropertyOp2
 70
     1
102
RTVSPropertyOp3
 70
     1
102
RTVSPropertyOp4
 70
     1
102
RTVSPropertyOp5
 70
     1
102
RTVSPropertyOp6
 70
     1
102
RTVSPropertyOp7
 70
     1
102
RTVSPropertyOp8
 70
     1
102
RTVSPropertyOp9
 70
     1
102
RTVSPropertyOp10
 70
     1
102
RTVSPropertyOp11
 70
     1
102
RTVSPropertyOp12
 70
     1
102
RTVSPropertyOp13
 70
     1
102
RTVSPropertyOp14
 70
     1
102
RTVSPropertyOp15
 70
     1
102
RTVSPropertyOp16
 70
     1
102
RTVSPropertyOp17
 70
     1
102
RTVSPropertyOp18
 70
     1
102
RTVSPropertyOp19
 70
     1
102
RTVSPropertyOp20
 70
     1
102
RTVSPropertyOp21
 70
     1
102
RTVSPropertyOp22
 70
     1
102
RTVSPropertyOp23
 70
     1
102
RTVSPropertyOp24
 70
     1
102
RTVSPropertyOp25
 70
     1
102
RTVSPropertyOp26
 70
     1
102
RTVSPropertyOp27
 70
     1
  0
ENDSEC
  0
EOF
